  0
SECTION
  2
HEADER
  9
$ACADVER
  1
AC1015
  9
$ACADMAINTVER
 70
               6
  9
$DWGCODEPAGE
  3
ANSI_932
  9
$INSBASE
 10
0.0
 20
0.0
 30
0.0
  9
$EXTMIN
 10
-144.49999915700116
 20
-101.49806892018475
 30
0.0
  9
$EXTMAX
 10
144.49999368902297
 20
101.49806345220655
 30
0.0
  9
$LIMMIN
 10
0.0
 20
0.0
  9
$LIMMAX
 10
0.0
 20
0.0
  9
$ORTHOMODE
 70
               0
  9
$REGENMODE
 70
               1
  9
$FILLMODE
 70
               1
  9
$QTEXTMODE
 70
               0
  9
$MIRRTEXT
 70
               1
  9
$LTSCALE
 40
5.0800000000000001
  9
$ATTMODE
 70
               1
  9
$TEXTSIZE
 40
0.2
  9
$TRACEWID
 40
1.0
  9
$TEXTSTYLE
  7
Standard
  9
$CLAYER
  8
0-2 椅子
  9
$CELTYPE
  6
Continuous
  9
$CECOLOR
 62
             256
  9
$CELTSCALE
 40
1.0
  9
$DISPSILH
 70
               0
  9
$DIMSCALE
 40
1.0
  9
$DIMASZ
 40
0.18
  9
$DIMEXO
 40
0.0625
  9
$DIMDLI
 40
0.38
  9
$DIMRND
 40
0.0
  9
$DIMDLE
 40
0.0
  9
$DIMEXE
 40
0.18
  9
$DIMTP
 40
0.0
  9
$DIMTM
 40
0.0
  9
$DIMTXT
 40
0.18
  9
$DIMCEN
 40
0.09
  9
$DIMTSZ
 40
0.0
  9
$DIMTOL
 70
               0
  9
$DIMLIM
 70
               0
  9
$DIMTIH
 70
               1
  9
$DIMTOH
 70
               1
  9
$DIMSE1
 70
               0
  9
$DIMSE2
 70
               0
  9
$DIMTAD
 70
               0
  9
$DIMZIN
 70
               0
  9
$DIMBLK
  1

  9
$DIMASO
 70
               1
  9
$DIMSHO
 70
               1
  9
$DIMPOST
  1

  9
$DIMAPOST
  1

  9
$DIMALT
 70
               0
  9
$DIMALTD
 70
               2
  9
$DIMALTF
 40
25.399999999999999
  9
$DIMLFAC
 40
1.0
  9
$DIMTOFL
 70
               0
  9
$DIMTVP
 40
0.0
  9
$DIMTIX
 70
               0
  9
$DIMSOXD
 70
               0
  9
$DIMSAH
 70
               0
  9
$DIMBLK1
  1

  9
$DIMBLK2
  1

  9
$DIMSTYLE
  2
Standard
  9
$DIMCLRD
 70
               0
  9
$DIMCLRE
 70
               0
  9
$DIMCLRT
 70
               0
  9
$DIMTFAC
 40
1.0
  9
$DIMGAP
 40
0.09
  9
$DIMJUST
 70
               0
  9
$DIMSD1
 70
               0
  9
$DIMSD2
 70
               0
  9
$DIMTOLJ
 70
               1
  9
$DIMTZIN
 70
               0
  9
$DIMALTZ
 70
               0
  9
$DIMALTTZ
 70
               0
  9
$DIMUPT
 70
               0
  9
$DIMDEC
 70
               4
  9
$DIMTDEC
 70
               4
  9
$DIMALTU
 70
               2
  9
$DIMALTTD
 70
               2
  9
$DIMTXSTY
  7
Standard
  9
$DIMAUNIT
 70
               0
  9
$DIMADEC
 70
               0
  9
$DIMALTRND
 40
0.0
  9
$DIMAZIN
 70
               0
  9
$DIMDSEP
 70
               0
  9
$DIMATFIT
 70
               3
  9
$DIMFRAC
 70
               0
  9
$DIMLDRBLK
  1

  9
$DIMLUNIT
 70
               2
  9
$DIMLWD
 70
               0
  9
$DIMLWE
 70
               0
  9
$DIMTMOVE
 70
               0
  9
$LUNITS
 70
               2
  9
$LUPREC
 70
               4
  9
$SKETCHINC
 40
0.1
  9
$FILLETRAD
 40
0.0
  9
$AUNITS
 70
               0
  9
$AUPREC
 70
               0
  9
$MENU
  1
acad
  9
$ELEVATION
 40
0.0
  9
$PELEVATION
 40
0.0
  9
$THICKNESS
 40
0.0
  9
$LIMCHECK
 70
               0
  9
$CHAMFERA
 40
0.0
  9
$CHAMFERB
 40
0.0
  9
$CHAMFERC
 40
0.0
  9
$CHAMFERD
 40
0.0
  9
$SKPOLY
 70
               0
  9
$TDCREATE
 40
2454925.760520834
  9
$TDUCREATE
 40
0.000000000
  9
$TDUPDATE
 40
2454925.760520834
  9
$TDUUPDATE
 40
0.000000000
  9
$TDINDWG
 40
0.0000000000
  9
$TDUSRTIMER
 40
0.0000000000
  9
$USRTIMER
 70
               1
  9
$ANGBASE
 50
0.0
  9
$ANGDIR
 70
               0
  9
$PDMODE
 70
               1
  9
$PDSIZE
 40
-2.0
  9
$PLINEWID
 40
0.0
  9
$SPLFRAME
 70
               0
  9
$SPLINETYPE
 70
               6
  9
$SPLINESEGS
 70
               8
  9
$HANDSEED
  5
21E
  9
$SURFTAB1
 70
               6
  9
$SURFTAB2
 70
               6
  9
$SURFTYPE
 70
               6
  9
$SURFU
 70
               6
  9
$SURFV
 70
               6
  9
$UCSBASE
  2

  9
$UCSNAME
  2

  9
$UCSORG
 10
0.0
 20
0.0
 30
0.0
  9
$UCSXDIR
 10
1.0
 20
0.0
 30
0.0
  9
$UCSYDIR
 10
0.0
 20
1.0
 30
0.0
  9
$UCSORTHOREF
  2

  9
$UCSORTHOVIEW
 70
               0
  9
$UCSORGTOP
 10
0.0
 20
0.0
 30
0.0
  9
$UCSORGBOTTOM
 10
0.0
 20
0.0
 30
0.0
  9
$UCSORGLEFT
 10
0.0
 20
0.0
 30
0.0
  9
$UCSORGRIGHT
 10
0.0
 20
0.0
 30
0.0
  9
$UCSORGFRONT
 10
0.0
 20
0.0
 30
0.0
  9
$UCSORGBACK
 10
0.0
 20
0.0
 30
0.0
  9
$PUCSBASE
  2

  9
$PUCSNAME
  2

  9
$PUCSORG
 10
0.0
 20
0.0
 30
0.0
  9
$PUCSXDIR
 10
1.0
 20
0.0
 30
0.0
  9
$PUCSYDIR
 10
0.0
 20
1.0
 30
0.0
  9
$PUCSORTHOREF
  2

  9
$PUCSORTHOVIEW
 70
               0
  9
$PUCSORGTOP
 10
0.0
 20
0.0
 30
0.0
  9
$PUCSORGBOTTOM
 10
0.0
 20
0.0
 30
0.0
  9
$PUCSORGLEFT
 10
0.0
 20
0.0
 30
0.0
  9
$PUCSORGRIGHT
 10
0.0
 20
0.0
 30
0.0
  9
$PUCSORGFRONT
 10
0.0
 20
0.0
 30
0.0
  9
$PUCSORGBACK
 10
0.0
 20
0.0
 30
0.0
  9
$USERI1
 70
               0
  9
$USERI2
 70
               0
  9
$USERI3
 70
               0
  9
$USERI4
 70
               0
  9
$USERI5
 70
               0
  9
$USERR1
 40
0.0
  9
$USERR2
 40
0.0
  9
$USERR3
 40
0.0
  9
$USERR4
 40
0.0
  9
$USERR5
 40
0.0
  9
$WORLDVIEW
 70
               1
  9
$SHADEDGE
 70
               3
  9
$SHADEDIF
 70
              70
  9
$TILEMODE
 70
               1
  9
$MAXACTVP
 70
              64
  9
$PINSBASE
 10
0.0
 20
0.0
 30
0.0
  9
$PLIMCHECK
 70
               0
  9
$PEXTMIN
 10
1.0000000000000000E+20
 20
1.0000000000000000E+20
 30
1.0000000000000000E+20
  9
$PEXTMAX
 10
-1.0000000000000000E+20
 20
-1.0000000000000000E+20
 30
-1.0000000000000000E+20
  9
$PLIMMIN
 10
0.0
 20
0.0
  9
$PLIMMAX
 10
12.0
 20
9.0
  9
$UNITMODE
 70
               0
  9
$VISRETAIN
 70
               0
  9
$PLINEGEN
 70
               1
  9
$PSLTSCALE
 70
               0
  9
$TREEDEPTH
 70
            3020
  9
$CMLSTYLE
  2
Standard
  9
$CMLJUST
 70
               0
  9
$CMLSCALE
 40
1.0
  9
$PROXYGRAPHICS
 70
               0
  9
$MEASUREMENT
 70
               1
  9
$CELWEIGHT
370
               0
  9
$ENDCAPS
280
               0
  9
$JOINSTYLE
280
               0
  9
$LWDISPLAY
290
               1
  9
$INSUNITS
 70
               4
  9
$HYPERLINKBASE
  1

  9
$STYLESHEET
  1

  9
$XEDIT
290
               1
  9
$CEPSNTYPE
380
               0
  9
$PSTYLEMODE
290
               1
  9
$FINGERPRINTGUID
  2

  9
$VERSIONGUID
  2

  9
$EXTNAMES
290
               1
  9
$PSVPSCALE
 40
0.0
  0
ENDSEC
  0
SECTION
  2
CLASSES
  0
CLASS
  1
LWPOLYLINE
  2
AcDbPolyline
  3
AutoCAD 2000
 90
        0
280
               0
281
               1
  0
CLASS
  1
IMAGE
  2
AcDbRasterImage
  3
ISM
 90
      127
280
               0
281
               1
  0
CLASS
  1
OLE2FRAME
  2
AcDbOle2Frame
  3
AutoCAD 2000
 90
        0
280
               0
281
               1
  0
CLASS
  1
HATCH
  2
AcDbHatch
  3
AutoCAD 2000
 90
        0
280
               0
281
               1
  0
CLASS
  1
DICTIONARYVAR
  2
AcDbDictionaryVar
  3
AutoCAD 2000
 90
        0
280
               0
281
               0
  0
CLASS
  1
RASTERVARIABLES
  2
AcDbRasterVariables
  3
ISM
 90
        0
280
               0
281
               0
  0
CLASS
  1
IMAGEDEF
  2
AcDbRasterImageDef
  3
ISM
 90
        0
280
               0
281
               0
  0
CLASS
  1
IMAGEDEF_REACTOR
  2
AcDbRasterImageDefReactor
  3
ISM
 90
        1
280
               0
281
               0
  0
CLASS
  1
IDBUFFER
  2
AcDbIdBuffer
  3
AutoCAD 2000
 90
        0
280
               0
281
               0
  0
CLASS
  1
SPATIAL_FILTER
  2
AcDbSpatialFilter
  3
AutoCAD 2000
 90
        0
280
               0
281
               0
  0
CLASS
  1
XRECORD
  2
AcDbXrecord
  3
AutoCAD 2000
 90
        0
280
               0
281
               0
  0
CLASS
  1
SORTENTSTABLE
  2
AcDbSortentsTable
  3
AutoCAD 2000
 90
        0
280
               0
281
               0
  0
CLASS
  1
LAYER_INDEX
  2
AcDbLayerIndex
  3
AutoCAD 2000
 90
        0
280
               0
281
               0
  0
CLASS
  1
SPATIAL_INDEX
  2
AcDbSpatialIndex
  3
AutoCAD 2000
 90
        0
280
               0
281
               0
  0
CLASS
  1
OBJECT_PTR
  2
CAseDLPNTableRecord
  3
"ASE-LPNTableRecord"
 90
        1
280
               0
281
               0
  0
CLASS
  1
LAYOUT
  2
AcDbLayout
  3
AutoCAD 2000
 90
        0
280
               0
281
               0
  0
CLASS
  1
PLOTSETTINGS
  2
AcDbPlotSettings
  3
AutoCAD 2000
 90
        0
280
               0
281
               0
  0
CLASS
  1
ACDBDICTIONARYWDFLT
  2
AcDbDictionaryWithDefault
  3
AutoCAD 2000
 90
        0
280
               0
281
               0
  0
CLASS
  1
ACDBPLACEHOLDER
  2
AcDbPlaceHolder
  3
AutoCAD 2000
 90
        0
280
               0
281
               0
  0
CLASS
  1
VBA_PROJECT
  2
AcDbVbaProject
  3
acadvba
 90
        0
280
               0
281
               0
  0
CLASS
  1
WIPEOUT
  2
AcDbWipeout
  3
WipeOut|AutoCAD Express Tool|expresstools@autodesk.com
 90
      127
280
               0
281
               1
  0
CLASS
  1
WIPEOUTVARIABLES
  2
AcDbWipeoutVariables
  3
WipeOut|AutoCAD Express Tool|expresstools@autodesk.com
 90
        0
280
               0
281
               0
  0
CLASS
  1
RTEXT
  2
RText
  3
RText|AutoCAD Express Tool|expresstools@autodesk.com
 90
        0
280
               0
281
               1
  0
CLASS
  1
ARCALIGNEDTEXT
  2
AcDbArcAlignedText
  3
ATEXT|AutoCAD Express Tool|expresstools@autodesk.com
 90
        0
280
               0
281
               1
  0
ENDSEC
  0
SECTION
  2
TABLES
  0
TABLE
  2
VPORT
  5
7
100
AcDbSymbolTable
 70
               1
  0
VPORT
  5
15
100
AcDbSymbolTableRecord
100
AcDbViewportTableRecord
  2
*ACTIVE
 70
               0
 10
0.0
 20
0.0
 11
1.0
 21
1.0
 12
-0.0000027339890778
 22
-0.0000027339891062
 13
0.0
 23
0.0
 14
1.0
 24
1.0
 15
0.0
 25
0.0
 16
0.0
 26
0.0
 36
1.0
 17
0.0
 27
0.0
 37
0.0
 40
202.99613237239129
 41
0.688564
 42
50.0
 43
0.0
 44
0.0
 50
0.0
 51
0.0
 71
               0
 72
            2000
 73
               1
 74
               1
 75
               0
 76
               0
 77
               0
 78
               0
281
               0
 65
               0
110
0.0
120
0.0
130
0.0
111
1.0
121
0.0
131
0.0
112
0.0
122
1.0
132
0.0
345
0
346
0
 79
               0
146
0.0
  0
ENDTAB
  0
TABLE
  2
LTYPE
  5
4
100
AcDbSymbolTable
 70
              13
  0
LTYPE
  5
11
100
AcDbSymbolTableRecord
100
AcDbLinetypeTableRecord
  2
ByBlock
 70
              64
  3

 72
              65
 73
               0
 40
0.0
  0
LTYPE
  5
12
100
AcDbSymbolTableRecord
100
AcDbLinetypeTableRecord
  2
ByLayer
 70
              64
  3

 72
              65
 73
               0
 40
0.0
  0
LTYPE
  5
13
100
AcDbSymbolTableRecord
100
AcDbLinetypeTableRecord
  2
Continuous
 70
              64
  3
Solid line
 72
              65
 73
               0
 40
0.0
  0
LTYPE
  5
26
100
AcDbSymbolTableRecord
100
AcDbLinetypeTableRecord
  2
STYLE_01
 70
               0
  3

 72
              65
 73
               2
 40
0.41664
 49
0.20828
 74
               0
 49
-0.20836
 74
               0
  0
LTYPE
  5
27
100
AcDbSymbolTableRecord
100
AcDbLinetypeTableRecord
  2
STYLE_02
 70
               0
  3

 72
              65
 73
               2
 40
0.6944250000000001
 49
0.48607
 74
               0
 49
-0.2083550000000001
 74
               0
  0
LTYPE
  5
28
100
AcDbSymbolTableRecord
100
AcDbLinetypeTableRecord
  2
STYLE_03
 70
               0
  3

 72
              65
 73
               2
 40
1.25
 49
1.0416400000000001
 74
               0
 49
-0.2083599999999999
 74
               0
  0
LTYPE
  5
29
100
AcDbSymbolTableRecord
100
AcDbLinetypeTableRecord
  2
STYLE_04
 70
               0
  3

 72
              65
 73
               2
 40
1.5277099999999999
 49
1.3194249999999998
 74
               0
 49
-0.208285
 74
               0
  0
LTYPE
  5
2A
100
AcDbSymbolTableRecord
100
AcDbLinetypeTableRecord
  2
STYLE_05
 70
               0
  3

 72
              65
 73
               2
 40
0.20828
 49
0.069425
 74
               0
 49
-0.138855
 74
               0
  0
LTYPE
  5
2B
100
AcDbSymbolTableRecord
100
AcDbLinetypeTableRecord
  2
STYLE_06
 70
               0
  3

 72
              65
 73
               4
 40
1.0416400000000001
 49
0.625
 74
               0
 49
-0.20828
 74
               0
 49
0.06943
 74
               0
 49
-0.13893
 74
               0
  0
LTYPE
  5
2C
100
AcDbSymbolTableRecord
100
AcDbLinetypeTableRecord
  2
STYLE_07
 70
               0
  3

 72
              65
 73
               6
 40
1.875
 49
0.625
 74
               0
 49
-0.20828
 74
               0
 49
0.6250000000000001
 74
               0
 49
-0.2083599999999999
 74
               0
 49
0.06943
 74
               0
 49
-0.1389299999999999
 74
               0
  0
LTYPE
  5
2D
100
AcDbSymbolTableRecord
100
AcDbLinetypeTableRecord
  2
STYLE_08
 70
               0
  3

 72
              65
 73
               6
 40
1.25
 49
0.625
 74
               0
 49
-0.20828
 74
               0
 49
0.06943
 74
               0
 49
-0.13893
 74
               0
 49
0.0694299999999999
 74
               0
 49
-0.13893
 74
               0
  0
LTYPE
  5
2E
100
AcDbSymbolTableRecord
100
AcDbLinetypeTableRecord
  2
STYLE_09
 70
               0
  3

 72
              65
 73
               4
 40
5.0
 49
3.75
 74
               0
 49
-0.2777849999999998
 74
               0
 49
0.6944300000000003
 74
               0
 49
-0.2777849999999998
 74
               0
  0
LTYPE
  5
2F
100
AcDbSymbolTableRecord
100
AcDbLinetypeTableRecord
  2
STYLE_10
 70
               0
  3

 72
              65
 73
               6
 40
5.9375
 49
3.75
 74
               0
 49
-0.2777849999999998
 74
               0
 49
0.6944300000000003
 74
               0
 49
-0.2777849999999998
 74
               0
 49
0.625
 74
               0
 49
-0.3125
 74
               0
  0
ENDTAB
  0
TABLE
  2
LAYER
  5
2
100
AcDbSymbolTable
 70
               7
  0
LAYER
  5
14
100
AcDbSymbolTableRecord
100
AcDbLayerTableRecord
  2
0
 70
               0
 62
               7
  6
Continuous
290
               1
370
              -3
390
1D
  0
LAYER
  5
30
100
AcDbSymbolTableRecord
100
AcDbLayerTableRecord
  2
一般
 70
               0
 62
               7
  6
Continuous
290
               1
370
               5
390
1D
  0
LAYER
  5
31
100
AcDbSymbolTableRecord
100
AcDbLayerTableRecord
  2
寸法
 70
               0
 62
               7
  6
Continuous
290
               1
370
               5
390
1D
  0
LAYER
  5
32
100
AcDbSymbolTableRecord
100
AcDbLayerTableRecord
  2
0-3 駆体
 70
               0
 62
               7
  6
Continuous
290
               1
370
               5
390
1D
  0
LAYER
  5
33
100
AcDbSymbolTableRecord
100
AcDbLayerTableRecord
  2
0-2 椅子
 70
               0
 62
               7
  6
Continuous
290
               1
370
               5
390
1D
  0
LAYER
  5
34
100
AcDbSymbolTableRecord
100
AcDbLayerTableRecord
  2
0-0 枠
 70
               0
 62
               7
  6
Continuous
290
               1
370
               5
390
1D
  0
LAYER
  5
35
100
AcDbSymbolTableRecord
100
AcDbLayerTableRecord
  2
0-4
 70
               0
 62
               7
  6
Continuous
290
               1
370
               5
390
1D
  0
ENDTAB
  0
TABLE
  2
STYLE
  5
3
100
AcDbSymbolTable
 70
               2
  0
STYLE
  5
17
100
AcDbSymbolTableRecord
100
AcDbTextStyleTableRecord
  2
Standard
 70
               0
 40
0.0
 41
1.0
 50
0.0
 71
               0
 42
0.0
  3
txt
  4
BIGFONT.SHX
  0
STYLE
  5
25
100
AcDbSymbolTableRecord
100
AcDbTextStyleTableRecord
  2
ＭＳ ゴシック
 70
               0
 40
0.0
 41
1.0
 50
0.0
 71
               0
 42
0.0
  3

  4
ＭＳ ゴシック
1001
ACAD
1000
ＭＳ ゴシック
1071
        0
  0
ENDTAB
  0
TABLE
  2
VIEW
  5
5
100
AcDbSymbolTable
 70
               0
  0
ENDTAB
  0
TABLE
  2
UCS
  5
6
100
AcDbSymbolTable
 70
               0
  0
ENDTAB
  0
TABLE
  2
APPID
  5
8
100
AcDbSymbolTable
 70
               1
  0
APPID
  5
16
100
AcDbSymbolTableRecord
100
AcDbRegAppTableRecord
  2
ACAD
 70
               0
  0
ENDTAB
  0
TABLE
  2
DIMSTYLE
  5
9
100
AcDbSymbolTable
 70
               1
100
AcDbDimStyleTable
 71
               0
  0
DIMSTYLE
105
18
100
AcDbSymbolTableRecord
100
AcDbDimStyleTableRecord
  2
Standard
 70
               0
  3

  4

 40
1.0
 41
0.18
 42
0.0625
 43
0.38
 44
0.18
 45
0.0
 46
0.0
 47
0.0
 48
0.0
 71
               0
 72
               0
 73
               1
 74
               1
 75
               0
 76
               0
 77
               0
 78
               0
 79
               0
140
0.18
141
0.09
142
0.0
143
25.399999999999999
144
1.0
145
0.0
146
1.0
147
0.09
148
0.0
170
               0
171
               2
172
               0
173
               0
174
               0
175
               0
176
               0
177
               0
178
               0
179
               0
271
               4
272
               4
273
               2
274
               2
275
               0
276
               0
277
               2
278
              46
279
               0
280
               0
281
               0
282
               0
283
               1
284
               0
285
               0
286
               0
288
               0
289
               3
340
17
341
0
342
0
343
0
344
0
371
              -2
372
              -2
  0
ENDTAB
  0
TABLE
  2
BLOCK_RECORD
  5
1
100
AcDbSymbolTable
 70
               1
  0
BLOCK_RECORD
  5
A
100
AcDbSymbolTableRecord
100
AcDbBlockTableRecord
  2
*MODEL_SPACE
340
20
  0
BLOCK_RECORD
  5
B
100
AcDbSymbolTableRecord
100
AcDbBlockTableRecord
  2
*PAPER_SPACE
340
21
  0
BLOCK_RECORD
  5
24
100
AcDbSymbolTableRecord
100
AcDbBlockTableRecord
  2
JW Point
340
0
102
{BLKREFS
331
20C
331
20D
331
20E
331
20F
331
210
331
211
331
212
331
213
331
214
331
215
331
216
331
217
331
218
331
219
331
21A
331
21B
102
}
  0
ENDTAB
  0
ENDSEC
  0
SECTION
  2
BLOCKS
  0
BLOCK
  5
D
100
AcDbEntity
  8
0
390
0
100
AcDbBlockBegin
  2
*MODEL_SPACE
 70
               0
 10
0.0
 20
0.0
 30
0.0
  3
*MODEL_SPACE
  1

  0
ENDBLK
  5
E
100
AcDbEntity
  8
0
390
0
100
AcDbBlockEnd
  0
BLOCK
  5
F
100
AcDbEntity
 67
               1
  8
0
390
0
100
AcDbBlockBegin
  2
*PAPER_SPACE
 70
               0
 10
0.0
 20
0.0
 30
0.0
  3
*PAPER_SPACE
  1

  0
ENDBLK
  5
10
100
AcDbEntity
 67
               1
  8
0
390
0
100
AcDbBlockEnd
  0
BLOCK
  5
36
100
AcDbEntity
  8
一般
390
0
100
AcDbBlockBegin
  2
JW Point
 70
               0
 10
0.0
 20
0.0
 30
0.0
  3
JW Point
  1

  0
LINE
  5
37
100
AcDbEntity
  8
0-4
370
               5
390
0
  6
Continuous
 62
               7
100
AcDbLine
 10
0.0
 20
-0.06
 30
0.0
 11
0.0
 21
0.06
 31
0.0
  0
ENDBLK
  5
38
100
AcDbEntity
  8
一般
390
0
100
AcDbBlockEnd
  0
ENDSEC
  0
SECTION
  2
ENTITIES
  0
LINE
  5
39
100
AcDbEntity
  8
0-3 駆体
370
               5
390
0
  6
Continuous
 62
               7
100
AcDbLine
 10
-26.652124277413822
 20
0.0
 30
0.0
 11
-7.6521161465579643
 21
0.0
 31
0.0
  0
LINE
  5
3A
100
AcDbEntity
  8
0-3 駆体
370
               5
390
0
  6
Continuous
 62
               7
100
AcDbLine
 10
-7.6521161465579643
 20
-3.7500006838515403
 30
0.0
 11
-7.6521161465579643
 21
0.0
 31
0.0
  0
LINE
  5
3B
100
AcDbEntity
  8
0-3 駆体
370
               5
390
0
  6
Continuous
 62
               7
100
AcDbLine
 10
11.347865738002584
 20
-7.5000013677030806
 30
0.0
 11
11.347865738002584
 21
-3.7500006838515403
 31
0.0
  0
LINE
  5
3C
100
AcDbEntity
  8
0-3 駆体
370
               5
390
0
  6
Continuous
 62
               7
100
AcDbLine
 10
-7.6521161465579643
 20
-3.7500006838515403
 30
0.0
 11
11.347865738002584
 21
-3.7500006838515403
 31
0.0
  0
LINE
  5
3D
100
AcDbEntity
  8
0-3 駆体
370
               5
390
0
  6
Continuous
 62
               7
100
AcDbLine
 10
11.347865738002584
 20
-7.5000013677030806
 30
0.0
 11
30.347891366388648
 21
-7.5000013677030806
 31
0.0
  0
LINE
  5
3E
100
AcDbEntity
  8
0-2 椅子
370
               5
390
0
  6
Continuous
 62
               7
100
AcDbLine
 10
-0.0521076449565589
 20
7.0500173833686857
 30
0.0
 11
-0.0521076449565589
 21
7.649990196637809
 31
0.0
  0
LINE
  5
3F
100
AcDbEntity
  8
0-2 椅子
370
               5
390
0
  6
Continuous
 62
               7
100
AcDbLine
 10
-0.7521138384193182
 20
7.0500173833686857
 30
0.0
 11
-0.7521138384193182
 21
0.2500047115981579
 31
0.0
  0
LINE
  5
40
100
AcDbEntity
  8
0-2 椅子
370
               5
390
0
  6
Continuous
 62
               7
100
AcDbLine
 10
-1.1521073789522052
 20
0.2500047115981579
 30
0.0
 11
-1.1521073789522052
 21
-3.7500006838515403
 31
0.0
  0
LINE
  5
41
100
AcDbEntity
  8
0-2 椅子
370
               5
390
0
  6
Continuous
 62
               7
100
AcDbLine
 10
-5.1521215231670068
 20
0.2500047115981579
 30
0.0
 11
-5.1521215231670068
 21
-3.7500006838515403
 31
0.0
  0
LINE
  5
42
100
AcDbEntity
  8
0-2 椅子
370
               5
390
0
  6
Continuous
 62
               7
100
AcDbLine
 10
-1.1521073789522052
 20
-3.7500006838515403
 30
0.0
 11
-5.1521215231670068
 21
-3.7500006838515403
 31
0.0
  0
LINE
  5
43
100
AcDbEntity
  8
0-2 椅子
370
               5
390
0
  6
Continuous
 62
               7
100
AcDbLine
 10
-7.7902766450727361
 20
12.141483718072996
 30
0.0
 11
-6.4722839309927078
 21
7.649990196637809
 31
0.0
  0
LINE
  5
44
100
AcDbEntity
  8
0-2 椅子
370
               5
390
0
  6
Continuous
 62
               7
100
AcDbLine
 10
-8.3821568506211044
 20
12.737887035179883
 30
0.0
 11
-6.8891538394102829
 21
7.649990196637809
 31
0.0
  0
LINE
  5
45
100
AcDbEntity
  8
0-2 椅子
370
               5
390
0
  6
Continuous
 62
               7
100
AcDbLine
 10
-9.6521188442828141
 20
13.199996807947755
 30
0.0
 11
-9.1709980049449946
 21
13.295270859925077
 31
0.0
  0
LINE
  5
46
100
AcDbEntity
  8
0-2 椅子
370
               5
390
0
  6
Continuous
 62
               7
100
AcDbLine
 10
-9.6521188442828141
 20
13.199996807947755
 30
0.0
 11
-5.8246215991443027
 21
0.1564366688160226
 31
0.0
  0
LINE
  5
47
100
AcDbEntity
  8
0-2 椅子
370
               5
390
0
  6
Continuous
 62
               7
100
AcDbLine
 10
-9.0296529559325425
 20
12.813546355795115
 30
0.0
 11
-5.3430195777257907
 21
0.2500047115981579
 31
0.0
  0
LINE
  5
48
100
AcDbEntity
  8
0-2 椅子
370
               5
390
0
  6
Continuous
 62
               7
100
AcDbLine
 10
-5.8246215991443027
 20
0.1564366688160226
 30
0.0
 11
-5.3435182573366911
 21
0.2517019720282406
 31
0.0
  0
LINE
  5
49
100
AcDbEntity
  8
0-2 椅子
370
               5
390
0
  6
Continuous
 62
               7
100
AcDbLine
 10
-5.0929011321812867
 20
0.2500047115981579
 30
0.0
 11
-7.0882932306965811
 21
7.0500173833686857
 31
0.0
  0
LINE
  5
4A
100
AcDbEntity
  8
0-2 椅子
370
               5
390
0
  6
Continuous
 62
               7
100
AcDbLine
 10
-0.37924146970734
 20
7.0500173833686857
 30
0.0
 11
-0.7521138384193182
 21
7.0500173833686857
 31
0.0
  0
LINE
  5
4B
100
AcDbEntity
  8
0-2 椅子
370
               5
390
0
  6
Continuous
 62
               7
100
AcDbLine
 10
-3.2882758567482235
 20
7.0500173833686857
 30
0.0
 11
-7.3384116762410851
 21
7.0500173833686857
 31
0.0
  0
LINE
  5
4C
100
AcDbEntity
  8
0-2 椅子
370
               5
390
0
  6
Continuous
 62
               7
100
AcDbLine
 10
-0.0521076449565589
 20
7.649990196637809
 30
0.0
 11
-1.3302322364598513
 21
7.649990196637809
 31
0.0
  0
LINE
  5
4D
100
AcDbEntity
  8
0-2 椅子
370
               5
390
0
  6
Continuous
 62
               7
100
AcDbLine
 10
-3.962210730202496
 20
0.2500047115981579
 30
0.0
 11
-5.3521095446683464
 21
0.2500047115981579
 31
0.0
  0
LINE
  5
4E
100
AcDbEntity
  8
0-2 椅子
370
               5
390
0
  6
Continuous
 62
               7
100
AcDbLine
 10
-0.4521011854894459
 20
7.0500173833686857
 30
0.0
 11
-0.4521011854894459
 21
0.2500047115981579
 31
0.0
  0
LINE
  5
4F
100
AcDbEntity
  8
0-2 椅子
370
               5
390
0
  6
Continuous
 62
               7
100
AcDbLine
 10
-0.9155757656134665
 20
7.649990196637809
 30
0.0
 11
-7.5144543276540938
 21
7.649990196637809
 31
0.0
  0
LINE
  5
50
100
AcDbEntity
  8
0-2 椅子
370
               5
390
0
  6
Continuous
 62
               7
100
AcDbLine
 10
-3.572147038062103
 20
7.0500173833686857
 30
0.0
 11
-0.0521076449565589
 21
7.0500173833686857
 31
0.0
  0
LINE
  5
51
100
AcDbEntity
  8
0-2 椅子
370
               5
390
0
  6
Continuous
 62
               7
100
AcDbLine
 10
-0.4521011854894459
 20
0.2500047115981579
 30
0.0
 11
-4.1931693801702936
 21
0.2500047115981579
 31
0.0
  0
LINE
  5
52
100
AcDbEntity
  8
0-2 椅子
370
               5
390
0
  6
Continuous
 62
               7
100
AcDbLine
 10
3.1165201002359391
 20
4.067213408974931
 30
0.0
 11
2.7941106086410583
 21
1.5511735503841191
 31
0.0
  0
LINE
  5
53
100
AcDbEntity
  8
0-2 椅子
370
               5
390
0
  6
Continuous
 62
               7
100
AcDbLine
 10
-3.2672438254393636
 20
8.1264129491150374
 30
0.0
 11
-3.3092641442315656
 21
7.649990196637809
 31
0.0
  0
LINE
  5
54
100
AcDbEntity
  8
0-2 椅子
370
               5
390
0
  6
Continuous
 62
               7
100
AcDbLine
 10
-3.1378933333838361
 20
8.2130957137607048
 30
0.0
 11
-1.3302322364598513
 21
7.649990196637809
 31
0.0
  0
LINE
  5
55
100
AcDbEntity
  8
0-2 椅子
370
               5
390
0
  6
Continuous
 62
               7
100
AcDbLine
 10
3.0087003191001713
 20
4.1795475529041139
 30
0.0
 11
-0.4521011854894459
 21
3.8793511759070682
 31
0.0
  0
LINE
  5
56
100
AcDbEntity
  8
0-2 椅子
370
               5
390
0
  6
Continuous
 62
               7
100
AcDbLine
 10
-0.4521011854894459
 20
1.4101084618549795
 30
0.0
 11
2.812343035116792
 21
1.6932797419605776
 31
0.0
  0
LINE
  5
57
100
AcDbEntity
  8
0-2 椅子
370
               5
390
0
  6
Continuous
 62
               7
100
AcDbLine
 10
-0.4521011854894459
 20
1.2695857967622579
 30
0.0
 11
2.7941106086410583
 21
1.5511735503841191
 31
0.0
  0
LINE
  5
58
100
AcDbEntity
  8
0-2 椅子
370
               5
390
0
  6
Continuous
 62
               7
100
AcDbLine
 10
-19.052115775812418
 20
10.80002681598533
 30
0.0
 11
-19.052115775812418
 21
11.39999088048935
 31
0.0
  0
LINE
  5
59
100
AcDbEntity
  8
0-2 椅子
370
               5
390
0
  6
Continuous
 62
               7
100
AcDbLine
 10
-19.752121969275176
 20
10.80002681598533
 30
0.0
 11
-19.752121969275176
 21
4.0000053954496977
 31
0.0
  0
LINE
  5
5A
100
AcDbEntity
  8
0-2 椅子
370
               5
390
0
  6
Continuous
 62
               7
100
AcDbLine
 10
-20.152115509808063
 20
4.0000053954496977
 30
0.0
 11
-20.152115509808063
 21
0.0
 31
0.0
  0
LINE
  5
5B
100
AcDbEntity
  8
0-2 椅子
370
               5
390
0
  6
Continuous
 62
               7
100
AcDbLine
 10
-24.15211215649266
 20
4.0000053954496977
 30
0.0
 11
-24.15211215649266
 21
0.0
 31
0.0
  0
LINE
  5
5C
100
AcDbEntity
  8
0-2 椅子
370
               5
390
0
  6
Continuous
 62
               7
100
AcDbLine
 10
-20.152115509808063
 20
0.0
 30
0.0
 11
-24.15211215649266
 21
0.0
 31
0.0
  0
LINE
  5
5D
100
AcDbEntity
  8
0-2 椅子
370
               5
390
0
  6
Continuous
 62
               7
100
AcDbLine
 10
-26.79027602716349
 20
15.891484401924536
 30
0.0
 11
-25.472300810613671
 21
11.39999088048935
 31
0.0
  0
LINE
  5
5E
100
AcDbEntity
  8
0-2 椅子
370
               5
390
0
  6
Continuous
 62
               7
100
AcDbLine
 10
-27.382138735181652
 20
16.487887719031423
 30
0.0
 11
-25.889161970266141
 21
11.39999088048935
 31
0.0
  0
LINE
  5
5F
100
AcDbEntity
  8
0-2 椅子
370
               5
390
0
  6
Continuous
 62
               7
100
AcDbLine
 10
-28.65211822637357
 20
16.949997491799294
 30
0.0
 11
-28.171006135800855
 21
17.045271543776618
 31
0.0
  0
LINE
  5
60
100
AcDbEntity
  8
0-2 椅子
370
               5
390
0
  6
Continuous
 62
               7
100
AcDbLine
 10
-28.65211822637357
 20
16.949997491799294
 30
0.0
 11
-24.824629730000161
 21
3.9064373526675626
 31
0.0
  0
LINE
  5
61
100
AcDbEntity
  8
0-2 椅子
370
               5
390
0
  6
Continuous
 62
               7
100
AcDbLine
 10
-28.029652338023297
 20
16.563547039646657
 30
0.0
 11
-24.343018959816547
 21
4.0000053954496977
 31
0.0
  0
LINE
  5
62
100
AcDbEntity
  8
0-2 椅子
370
               5
390
0
  6
Continuous
 62
               7
100
AcDbLine
 10
-24.824629730000161
 20
3.9064373526675626
 30
0.0
 11
-24.343526388192551
 21
4.0017026558797806
 31
0.0
  0
LINE
  5
63
100
AcDbEntity
  8
0-2 椅子
370
               5
390
0
  6
Continuous
 62
               7
100
AcDbLine
 10
-24.092900514272042
 20
4.0000053954496977
 30
0.0
 11
-26.088283864022234
 21
10.80002681598533
 31
0.0
  0
LINE
  5
64
100
AcDbEntity
  8
0-2 椅子
370
               5
390
0
  6
Continuous
 62
               7
100
AcDbLine
 10
-19.379240851798095
 20
10.80002681598533
 30
0.0
 11
-19.752121969275176
 21
10.80002681598533
 31
0.0
  0
LINE
  5
65
100
AcDbEntity
  8
0-2 椅子
370
               5
390
0
  6
Continuous
 62
               7
100
AcDbLine
 10
-22.288292736369186
 20
10.80002681598533
 30
0.0
 11
-26.338419807096944
 21
10.80002681598533
 31
0.0
  0
LINE
  5
66
100
AcDbEntity
  8
0-2 椅子
370
               5
390
0
  6
Continuous
 62
               7
100
AcDbLine
 10
-19.052115775812418
 20
11.39999088048935
 30
0.0
 11
-20.33024036731571
 21
11.39999088048935
 31
0.0
  0
LINE
  5
67
100
AcDbEntity
  8
0-2 椅子
370
               5
390
0
  6
Continuous
 62
               7
100
AcDbLine
 10
-22.962218861058354
 20
4.0000053954496977
 30
0.0
 11
-24.352108926759101
 21
4.0000053954496977
 31
0.0
  0
LINE
  5
68
100
AcDbEntity
  8
0-2 椅子
370
               5
390
0
  6
Continuous
 62
               7
100
AcDbLine
 10
-19.452100567580199
 20
10.80002681598533
 30
0.0
 11
-19.452100567580199
 21
4.0000053954496977
 31
0.0
  0
LINE
  5
69
100
AcDbEntity
  8
0-2 椅子
370
               5
390
0
  6
Continuous
 62
               7
100
AcDbLine
 10
-19.915575147704221
 20
11.39999088048935
 30
0.0
 11
-26.514471207275054
 21
11.39999088048935
 31
0.0
  0
LINE
  5
6A
100
AcDbEntity
  8
0-2 椅子
370
               5
390
0
  6
Continuous
 62
               7
100
AcDbLine
 10
-22.572137671387754
 20
10.80002681598533
 30
0.0
 11
-19.052115775812418
 21
10.80002681598533
 31
0.0
  0
LINE
  5
6B
100
AcDbEntity
  8
0-2 椅子
370
               5
390
0
  6
Continuous
 62
               7
100
AcDbLine
 10
-19.452100567580199
 20
4.0000053954496977
 30
0.0
 11
-23.193160013495945
 21
4.0000053954496977
 31
0.0
  0
LINE
  5
6C
100
AcDbEntity
  8
0-2 椅子
370
               5
390
0
  6
Continuous
 62
               7
100
AcDbLine
 10
-15.883461784324609
 20
7.8172140928264708
 30
0.0
 11
-16.205888773449697
 21
5.3011829830007633
 31
0.0
  0
LINE
  5
6D
100
AcDbEntity
  8
0-2 椅子
370
               5
390
0
  6
Continuous
 62
               7
100
AcDbLine
 10
-22.267243207530118
 20
11.876404884201476
 30
0.0
 11
-22.309281023852527
 21
11.39999088048935
 31
0.0
  0
LINE
  5
6E
100
AcDbEntity
  8
0-2 椅子
370
               5
390
0
  6
Continuous
 62
               7
100
AcDbLine
 10
-22.137883966709488
 20
11.963096397612244
 30
0.0
 11
-20.33024036731571
 21
11.39999088048935
 31
0.0
  0
LINE
  5
6F
100
AcDbEntity
  8
0-2 椅子
370
               5
390
0
  6
Continuous
 62
               7
100
AcDbLine
 10
-15.991299062990583
 20
7.9295482367556547
 30
0.0
 11
-19.452100567580199
 21
7.6293606085237116
 31
0.0
  0
LINE
  5
70
100
AcDbEntity
  8
0-2 椅子
370
               5
390
0
  6
Continuous
 62
               7
100
AcDbLine
 10
-19.452100567580199
 20
5.1601178944716235
 30
0.0
 11
-16.187682593269273
 21
5.4432804258121177
 31
0.0
  0
LINE
  5
71
100
AcDbEntity
  8
0-2 椅子
370
               5
390
0
  6
Continuous
 62
               7
100
AcDbLine
 10
-19.452100567580199
 20
5.019586480613798
 30
0.0
 11
-16.205888773449697
 21
5.3011829830007633
 31
0.0
  0
LINE
  5
72
100
AcDbEntity
  8
0-2 椅子
370
               5
390
0
  6
Continuous
 62
               7
100
AcDbLine
 10
18.947882988369091
 20
3.3000166995171458
 30
0.0
 11
18.947882988369091
 21
3.8999895127862692
 31
0.0
  0
LINE
  5
73
100
AcDbEntity
  8
0-2 椅子
370
               5
390
0
  6
Continuous
 62
               7
100
AcDbLine
 10
18.247876794906333
 20
3.3000166995171458
 30
0.0
 11
18.247876794906333
 21
-3.4999959722533824
 31
0.0
  0
LINE
  5
74
100
AcDbEntity
  8
0-2 椅子
370
               5
390
0
  6
Continuous
 62
               7
100
AcDbLine
 10
17.847883254373446
 20
-3.4999959722533824
 30
0.0
 11
17.847883254373446
 21
-7.5000013677030806
 31
0.0
  0
LINE
  5
75
100
AcDbEntity
  8
0-2 椅子
370
               5
390
0
  6
Continuous
 62
               7
100
AcDbLine
 10
13.847877858923749
 20
-3.4999959722533824
 30
0.0
 11
13.847877858923749
 21
-7.5000013677030806
 31
0.0
  0
LINE
  5
76
100
AcDbEntity
  8
0-2 椅子
370
               5
390
0
  6
Continuous
 62
               7
100
AcDbLine
 10
17.847883254373446
 20
-7.5000013677030806
 30
0.0
 11
13.847877858923749
 21
-7.5000013677030806
 31
0.0
  0
LINE
  5
77
100
AcDbEntity
  8
0-2 椅子
370
               5
390
0
  6
Continuous
 62
               7
100
AcDbLine
 10
11.209705239487812
 20
8.391483034221455
 30
0.0
 11
12.527706702332944
 21
3.8999895127862692
 31
0.0
  0
LINE
  5
78
100
AcDbEntity
  8
0-2 椅子
370
               5
390
0
  6
Continuous
 62
               7
100
AcDbLine
 10
10.617851280234754
 20
8.9878776025632394
 30
0.0
 11
12.110828045150265
 21
3.8999895127862692
 31
0.0
  0
LINE
  5
79
100
AcDbEntity
  8
0-2 椅子
370
               5
390
0
  6
Continuous
 62
               7
100
AcDbLine
 10
9.3478630402777352
 20
9.4500048728613191
 30
0.0
 11
9.8289926283806572
 21
9.5452701760735366
 31
0.0
  0
LINE
  5
7A
100
AcDbEntity
  8
0-2 椅子
370
               5
390
0
  6
Continuous
 62
               7
100
AcDbLine
 10
9.3478630402777352
 20
9.4500048728613191
 30
0.0
 11
13.175377782946454
 21
-3.5935640150355175
 31
0.0
  0
LINE
  5
7B
100
AcDbEntity
  8
0-2 椅子
370
               5
390
0
  6
Continuous
 62
               7
100
AcDbLine
 10
9.9703551749233164
 20
9.0635456719435759
 30
0.0
 11
13.656979804364966
 21
-3.4999959722533824
 31
0.0
  0
LINE
  5
7C
100
AcDbEntity
  8
0-2 椅子
370
               5
390
0
  6
Continuous
 62
               7
100
AcDbLine
 10
13.175377782946454
 20
-3.5935640150355175
 30
0.0
 11
13.656489873519167
 21
-3.4982987118232995
 31
0.0
  0
LINE
  5
7D
100
AcDbEntity
  8
0-2 椅子
370
               5
390
0
  6
Continuous
 62
               7
100
AcDbLine
 10
13.907106998674571
 20
-3.4999959722533824
 30
0.0
 11
11.911706151394174
 21
3.3000166995171458
 31
0.0
  0
LINE
  5
7E
100
AcDbEntity
  8
0-2 椅子
370
               5
390
0
  6
Continuous
 62
               7
100
AcDbLine
 10
18.62074916361831
 20
3.3000166995171458
 30
0.0
 11
18.247876794906333
 21
3.3000166995171458
 31
0.0
  0
LINE
  5
7F
100
AcDbEntity
  8
0-2 椅子
370
               5
390
0
  6
Continuous
 62
               7
100
AcDbLine
 10
15.711714776577429
 20
3.3000166995171458
 30
0.0
 11
11.661596454614774
 21
3.3000166995171458
 31
0.0
  0
LINE
  5
80
100
AcDbEntity
  8
0-2 椅子
370
               5
390
0
  6
Continuous
 62
               7
100
AcDbLine
 10
18.947882988369091
 20
3.8999895127862692
 30
0.0
 11
17.669758396865799
 21
3.8999895127862692
 31
0.0
  0
LINE
  5
81
100
AcDbEntity
  8
0-2 椅子
370
               5
390
0
  6
Continuous
 62
               7
100
AcDbLine
 10
15.037779903123155
 20
-3.4999959722533824
 30
0.0
 11
13.647881088657305
 21
-3.4999959722533824
 31
0.0
  0
LINE
  5
82
100
AcDbEntity
  8
0-2 椅子
370
               5
390
0
  6
Continuous
 62
               7
100
AcDbLine
 10
18.547906945366414
 20
3.3000166995171458
 30
0.0
 11
18.547906945366414
 21
-3.4999959722533824
 31
0.0
  0
LINE
  5
83
100
AcDbEntity
  8
0-2 椅子
370
               5
390
0
  6
Continuous
 62
               7
100
AcDbLine
 10
18.084414867712184
 20
3.8999895127862692
 30
0.0
 11
11.485536305671557
 21
3.8999895127862692
 31
0.0
  0
LINE
  5
84
100
AcDbEntity
  8
0-2 椅子
370
               5
390
0
  6
Continuous
 62
               7
100
AcDbLine
 10
15.427869841558859
 20
3.3000166995171458
 30
0.0
 11
18.947882988369091
 21
3.3000166995171458
 31
0.0
  0
LINE
  5
85
100
AcDbEntity
  8
0-2 椅子
370
               5
390
0
  6
Continuous
 62
               7
100
AcDbLine
 10
18.547906945366414
 20
-3.4999959722533824
 30
0.0
 11
14.806847499450669
 21
-3.4999959722533824
 31
0.0
  0
LINE
  5
86
100
AcDbEntity
  8
0-2 椅子
370
               5
390
0
  6
Continuous
 62
               7
100
AcDbLine
 10
22.116528231091799
 20
0.3172127251233906
 30
0.0
 11
21.794118739496916
 21
-2.1988271334674212
 31
0.0
  0
LINE
  5
87
100
AcDbEntity
  8
0-2 椅子
370
               5
390
0
  6
Continuous
 62
               7
100
AcDbLine
 10
15.732746807886288
 20
4.3764035164983941
 30
0.0
 11
15.690717740328983
 21
3.8999895127862692
 31
0.0
  0
LINE
  5
88
100
AcDbEntity
  8
0-2 椅子
370
               5
390
0
  6
Continuous
 62
               7
100
AcDbLine
 10
15.86210604870692
 20
4.4630950299091641
 30
0.0
 11
17.669775894396007
 21
3.8999895127862692
 31
0.0
  0
LINE
  5
89
100
AcDbEntity
  8
0-2 椅子
370
               5
390
0
  6
Continuous
 62
               7
100
AcDbLine
 10
22.008708449956028
 20
0.4295468690525741
 30
0.0
 11
18.547906945366414
 21
0.1293504920555279
 31
0.0
  0
LINE
  5
8A
100
AcDbEntity
  8
0-2 椅子
370
               5
390
0
  6
Continuous
 62
               7
100
AcDbLine
 10
18.547906945366414
 20
-2.3398922219965606
 30
0.0
 11
21.812333668442445
 21
-2.0567209418909624
 31
0.0
  0
LINE
  5
8B
100
AcDbEntity
  8
0-2 椅子
370
               5
390
0
  6
Continuous
 62
               7
100
AcDbLine
 10
18.547906945366414
 20
-2.4804148870892821
 30
0.0
 11
21.794118739496916
 21
-2.1988271334674212
 31
0.0
  0
LINE
  5
8C
100
AcDbEntity
  8
0-3 駆体
370
               5
390
0
  6
Continuous
 62
               7
100
AcDbLine
 10
-29.55212119010277
 20
0.0
 30
0.0
 11
-28.652126975138671
 21
0.0
 31
0.0
  0
LINE
  5
8D
100
AcDbEntity
  8
0-3 駆体
370
               5
390
0
  6
Continuous
 62
               7
100
AcDbLine
 10
-55.552121265465395
 20
26.000000075362625
 30
0.0
 11
-55.552121265465395
 21
0.0
 31
0.0
  0
LINE
  5
8E
100
AcDbEntity
  8
0-3 駆体
370
               5
390
0
  6
Continuous
 62
               7
100
AcDbLine
 10
30.347891366388648
 20
-11.25000205155462
 30
0.0
 11
30.347891366388648
 21
-7.5000013677030806
 31
0.0
  0
LINE
  5
8F
100
AcDbEntity
  8
0-3 駆体
370
               5
390
0
  6
Continuous
 62
               7
100
AcDbLine
 10
49.347881999714303
 20
-15.000002735406161
 30
0.0
 11
49.347881999714303
 21
-11.25000205155462
 31
0.0
  0
LINE
  5
90
100
AcDbEntity
  8
0-3 駆体
370
               5
390
0
  6
Continuous
 62
               7
100
AcDbLine
 10
30.347891366388648
 20
-11.25000205155462
 30
0.0
 11
49.347881999714303
 21
-11.25000205155462
 31
0.0
  0
LINE
  5
91
100
AcDbEntity
  8
0-3 駆体
370
               5
390
0
  6
Continuous
 62
               7
100
AcDbLine
 10
49.347881999714303
 20
-15.000002735406161
 30
0.0
 11
68.347890130570164
 21
-15.000002735406161
 31
0.0
  0
LINE
  5
92
100
AcDbEntity
  8
0-2 椅子
370
               5
390
0
  6
Continuous
 62
               7
100
AcDbLine
 10
37.947891119224948
 20
-0.4499839843343944
 30
0.0
 11
37.947891119224948
 21
0.1499888289347291
 31
0.0
  0
LINE
  5
93
100
AcDbEntity
  8
0-2 椅子
370
               5
390
0
  6
Continuous
 62
               7
100
AcDbLine
 10
37.247884925762193
 20
-0.4499839843343944
 30
0.0
 11
37.247884925762193
 21
-7.2499966561049227
 31
0.0
  0
LINE
  5
94
100
AcDbEntity
  8
0-2 椅子
370
               5
390
0
  6
Continuous
 62
               7
100
AcDbLine
 10
36.847891385229303
 20
-7.2499966561049227
 30
0.0
 11
36.847891385229303
 21
-11.25000205155462
 31
0.0
  0
LINE
  5
95
100
AcDbEntity
  8
0-2 椅子
370
               5
390
0
  6
Continuous
 62
               7
100
AcDbLine
 10
32.847885989779606
 20
-7.2499966561049227
 30
0.0
 11
32.847885989779606
 21
-11.25000205155462
 31
0.0
  0
LINE
  5
96
100
AcDbEntity
  8
0-2 椅子
370
               5
390
0
  6
Continuous
 62
               7
100
AcDbLine
 10
36.847891385229303
 20
-11.25000205155462
 30
0.0
 11
32.847885989779606
 21
-11.25000205155462
 31
0.0
  0
LINE
  5
97
100
AcDbEntity
  8
0-2 椅子
370
               5
390
0
  6
Continuous
 62
               7
100
AcDbLine
 10
30.209730867873876
 20
4.6414823503699152
 30
0.0
 11
31.527732330719008
 21
0.1499888289347291
 31
0.0
  0
LINE
  5
98
100
AcDbEntity
  8
0-2 椅子
370
               5
390
0
  6
Continuous
 62
               7
100
AcDbLine
 10
29.617841913560405
 20
5.2378856674768031
 30
0.0
 11
31.110853673536329
 21
0.1499888289347291
 31
0.0
  0
LINE
  5
99
100
AcDbEntity
  8
0-2 椅子
370
               5
390
0
  6
Continuous
 62
               7
100
AcDbLine
 10
28.347888668663799
 20
5.6999954402446749
 30
0.0
 11
28.829018256766723
 21
5.7952694922219967
 31
0.0
  0
LINE
  5
9A
100
AcDbEntity
  8
0-2 椅子
370
               5
390
0
  6
Continuous
 62
               7
100
AcDbLine
 10
28.347888668663799
 20
5.6999954402446749
 30
0.0
 11
32.175385913802309
 21
-7.3435646988870573
 31
0.0
  0
LINE
  5
9B
100
AcDbEntity
  8
0-2 椅子
370
               5
390
0
  6
Continuous
 62
               7
100
AcDbLine
 10
28.970363305779173
 20
5.3135449880920351
 30
0.0
 11
32.656987935220826
 21
-7.2499966561049227
 31
0.0
  0
LINE
  5
9C
100
AcDbEntity
  8
0-2 椅子
370
               5
390
0
  6
Continuous
 62
               7
100
AcDbLine
 10
32.175385913802309
 20
-7.3435646988870573
 30
0.0
 11
32.656498004375024
 21
-7.2482993956748398
 31
0.0
  0
LINE
  5
9D
100
AcDbEntity
  8
0-2 椅子
370
               5
390
0
  6
Continuous
 62
               7
100
AcDbLine
 10
32.907097632000223
 20
-7.2499966561049227
 30
0.0
 11
30.911714282250031
 21
-0.4499839843343944
 31
0.0
  0
LINE
  5
9E
100
AcDbEntity
  8
0-2 椅子
370
               5
390
0
  6
Continuous
 62
               7
100
AcDbLine
 10
37.620757294474167
 20
-0.4499839843343944
 30
0.0
 11
37.247884925762193
 21
-0.4499839843343944
 31
0.0
  0
LINE
  5
9F
100
AcDbEntity
  8
0-2 椅子
370
               5
390
0
  6
Continuous
 62
               7
100
AcDbLine
 10
34.711722907433284
 20
-0.4499839843343944
 30
0.0
 11
30.661604585470631
 21
-0.4499839843343944
 31
0.0
  0
LINE
  5
A0
100
AcDbEntity
  8
0-2 椅子
370
               5
390
0
  6
Continuous
 62
               7
100
AcDbLine
 10
37.947891119224948
 20
0.1499888289347291
 30
0.0
 11
36.669766527721656
 21
0.1499888289347291
 31
0.0
  0
LINE
  5
A1
100
AcDbEntity
  8
0-2 椅子
370
               5
390
0
  6
Continuous
 62
               7
100
AcDbLine
 10
34.037788033979012
 20
-7.2499966561049227
 30
0.0
 11
32.647889219513161
 21
-7.2499966561049227
 31
0.0
  0
LINE
  5
A2
100
AcDbEntity
  8
0-2 椅子
370
               5
390
0
  6
Continuous
 62
               7
100
AcDbLine
 10
37.547915076222274
 20
-0.4499839843343944
 30
0.0
 11
37.547915076222274
 21
-7.2499966561049227
 31
0.0
  0
LINE
  5
A3
100
AcDbEntity
  8
0-2 椅子
370
               5
390
0
  6
Continuous
 62
               7
100
AcDbLine
 10
37.084440496098253
 20
0.1499888289347291
 30
0.0
 11
30.485544436527416
 21
0.1499888289347291
 31
0.0
  0
LINE
  5
A4
100
AcDbEntity
  8
0-2 椅子
370
               5
390
0
  6
Continuous
 62
               7
100
AcDbLine
 10
34.427860474884511
 20
-0.4499839843343944
 30
0.0
 11
37.947891119224948
 21
-0.4499839843343944
 31
0.0
  0
LINE
  5
A5
100
AcDbEntity
  8
0-2 椅子
370
               5
390
0
  6
Continuous
 62
               7
100
AcDbLine
 10
37.547915076222274
 20
-7.2499966561049227
 30
0.0
 11
33.806838132776321
 21
-7.2499966561049227
 31
0.0
  0
LINE
  5
A6
100
AcDbEntity
  8
0-2 椅子
370
               5
390
0
  6
Continuous
 62
               7
100
AcDbLine
 10
41.116536361947659
 20
-3.4327879587281496
 30
0.0
 11
40.794109372822568
 21
-5.9488278173189615
 31
0.0
  0
LINE
  5
A7
100
AcDbEntity
  8
0-2 椅子
370
               5
390
0
  6
Continuous
 62
               7
100
AcDbLine
 10
34.732754938742147
 20
0.6264115814119577
 30
0.0
 11
34.690743368715047
 21
0.1499888289347291
 31
0.0
  0
LINE
  5
A8
100
AcDbEntity
  8
0-2 椅子
370
               5
390
0
  6
Continuous
 62
               7
100
AcDbLine
 10
34.862114179562781
 20
0.7130943460576237
 30
0.0
 11
36.669766527721656
 21
0.1499888289347291
 31
0.0
  0
LINE
  5
A9
100
AcDbEntity
  8
0-2 椅子
370
               5
390
0
  6
Continuous
 62
               7
100
AcDbLine
 10
41.008716580811885
 20
-3.3204538147989662
 30
0.0
 11
37.547915076222274
 21
-3.6206501917960123
 31
0.0
  0
LINE
  5
AA
100
AcDbEntity
  8
0-2 椅子
370
               5
390
0
  6
Continuous
 62
               7
100
AcDbLine
 10
37.547915076222274
 20
-6.0898929058481013
 30
0.0
 11
40.812341799298302
 21
-5.8067216257425027
 31
0.0
  0
LINE
  5
AB
100
AcDbEntity
  8
0-2 椅子
370
               5
390
0
  6
Continuous
 62
               7
100
AcDbLine
 10
37.547915076222274
 20
-6.2304155709408224
 30
0.0
 11
40.794109372822568
 21
-5.9488278173189615
 31
0.0
  0
LINE
  5
AC
100
AcDbEntity
  8
0-2 椅子
370
               5
390
0
  6
Continuous
 62
               7
100
AcDbLine
 10
56.947899250080809
 20
-4.1999846681859347
 30
0.0
 11
56.947899250080809
 21
-3.600011854916811
 31
0.0
  0
LINE
  5
AD
100
AcDbEntity
  8
0-2 椅子
370
               5
390
0
  6
Continuous
 62
               7
100
AcDbLine
 10
56.247893056618054
 20
-4.1999846681859347
 30
0.0
 11
56.247893056618054
 21
-10.999997339956463
 31
0.0
  0
LINE
  5
AE
100
AcDbEntity
  8
0-2 椅子
370
               5
390
0
  6
Continuous
 62
               7
100
AcDbLine
 10
55.847899516085164
 20
-10.999997339956463
 30
0.0
 11
55.847899516085164
 21
-15.000002735406161
 31
0.0
  0
LINE
  5
AF
100
AcDbEntity
  8
0-2 椅子
370
               5
390
0
  6
Continuous
 62
               7
100
AcDbLine
 10
51.847894120635466
 20
-10.999997339956463
 30
0.0
 11
51.847894120635466
 21
-15.000002735406161
 31
0.0
  0
LINE
  5
B0
100
AcDbEntity
  8
0-2 椅子
370
               5
390
0
  6
Continuous
 62
               7
100
AcDbLine
 10
55.847899516085164
 20
-15.000002735406161
 30
0.0
 11
51.847894120635466
 21
-15.000002735406161
 31
0.0
  0
LINE
  5
B1
100
AcDbEntity
  8
0-2 椅子
370
               5
390
0
  6
Continuous
 62
               7
100
AcDbLine
 10
49.209721501199532
 20
0.8914816665183754
 30
0.0
 11
50.527705466514455
 21
-3.600011854916811
 31
0.0
  0
LINE
  5
B2
100
AcDbEntity
  8
0-2 椅子
370
               5
390
0
  6
Continuous
 62
               7
100
AcDbLine
 10
48.617850044416265
 20
1.4878762348601595
 30
0.0
 11
50.110844306861985
 21
-3.600011854916811
 31
0.0
  0
LINE
  5
B3
100
AcDbEntity
  8
0-2 椅子
370
               5
390
0
  6
Continuous
 62
               7
100
AcDbLine
 10
47.347879301989451
 20
1.9500035051582381
 30
0.0
 11
47.828991392562166
 21
2.045268808370456
 31
0.0
  0
LINE
  5
B4
100
AcDbEntity
  8
0-2 椅子
370
               5
390
0
  6
Continuous
 62
               7
100
AcDbLine
 10
47.347879301989451
 20
1.9500035051582381
 30
0.0
 11
51.175394044658169
 21
-11.093565382738598
 31
0.0
  0
LINE
  5
B5
100
AcDbEntity
  8
0-2 椅子
370
               5
390
0
  6
Continuous
 62
               7
100
AcDbLine
 10
47.970371436635034
 20
1.5635443042404951
 30
0.0
 11
51.65699606607668
 21
-10.999997339956463
 31
0.0
  0
LINE
  5
B6
100
AcDbEntity
  8
0-2 椅子
370
               5
390
0
  6
Continuous
 62
               7
100
AcDbLine
 10
51.175394044658169
 20
-11.093565382738598
 30
0.0
 11
51.656506135230885
 21
-10.998300079526381
 31
0.0
  0
LINE
  5
B7
100
AcDbEntity
  8
0-2 椅子
370
               5
390
0
  6
Continuous
 62
               7
100
AcDbLine
 10
51.907105762856084
 20
-10.999997339956463
 30
0.0
 11
49.911722413105892
 21
-4.1999846681859347
 31
0.0
  0
LINE
  5
B8
100
AcDbEntity
  8
0-2 椅子
370
               5
390
0
  6
Continuous
 62
               7
100
AcDbLine
 10
56.620765425330028
 20
-4.1999846681859347
 30
0.0
 11
56.247893056618054
 21
-4.1999846681859347
 31
0.0
  0
LINE
  5
B9
100
AcDbEntity
  8
0-2 椅子
370
               5
390
0
  6
Continuous
 62
               7
100
AcDbLine
 10
53.711731038289145
 20
-4.1999846681859347
 30
0.0
 11
49.661612716326488
 21
-4.1999846681859347
 31
0.0
  0
LINE
  5
BA
100
AcDbEntity
  8
0-2 椅子
370
               5
390
0
  6
Continuous
 62
               7
100
AcDbLine
 10
56.947899250080809
 20
-3.600011854916811
 30
0.0
 11
55.669774658577516
 21
-3.600011854916811
 31
0.0
  0
LINE
  5
BB
100
AcDbEntity
  8
0-2 椅子
370
               5
390
0
  6
Continuous
 62
               7
100
AcDbLine
 10
53.037796164834873
 20
-10.999997339956463
 30
0.0
 11
51.647897350369021
 21
-10.999997339956463
 31
0.0
  0
LINE
  5
BC
100
AcDbEntity
  8
0-2 椅子
370
               5
390
0
  6
Continuous
 62
               7
100
AcDbLine
 10
56.547905709547926
 20
-4.1999846681859347
 30
0.0
 11
56.547905709547926
 21
-10.999997339956463
 31
0.0
  0
LINE
  5
BD
100
AcDbEntity
  8
0-2 椅子
370
               5
390
0
  6
Continuous
 62
               7
100
AcDbLine
 10
56.084431129423905
 20
-3.600011854916811
 30
0.0
 11
49.485552567383273
 21
-3.600011854916811
 31
0.0
  0
LINE
  5
BE
100
AcDbEntity
  8
0-2 椅子
370
               5
390
0
  6
Continuous
 62
               7
100
AcDbLine
 10
53.427886103270573
 20
-4.1999846681859347
 30
0.0
 11
56.947899250080809
 21
-4.1999846681859347
 31
0.0
  0
LINE
  5
BF
100
AcDbEntity
  8
0-2 椅子
370
               5
390
0
  6
Continuous
 62
               7
100
AcDbLine
 10
56.547905709547926
 20
-10.999997339956463
 30
0.0
 11
52.80686376116239
 21
-10.999997339956463
 31
0.0
  0
LINE
  5
C0
100
AcDbEntity
  8
0-2 椅子
370
               5
390
0
  6
Continuous
 62
               7
100
AcDbLine
 10
60.116526995273311
 20
-7.1827886425796894
 30
0.0
 11
59.794117503678429
 21
-9.6988285011705013
 31
0.0
  0
LINE
  5
C1
100
AcDbEntity
  8
0-2 椅子
370
               5
390
0
  6
Continuous
 62
               7
100
AcDbLine
 10
53.732763069598008
 20
-3.123597851204686
 30
0.0
 11
53.690734002040699
 21
-3.600011854916811
 31
0.0
  0
LINE
  5
C2
100
AcDbEntity
  8
0-2 椅子
370
               5
390
0
  6
Continuous
 62
               7
100
AcDbLine
 10
53.862104812888433
 20
-3.0369063377939165
 30
0.0
 11
55.669774658577516
 21
-3.600011854916811
 31
0.0
  0
LINE
  5
C3
100
AcDbEntity
  8
0-2 椅子
370
               5
390
0
  6
Continuous
 62
               7
100
AcDbLine
 10
60.008707214137537
 20
-7.0704544986505065
 30
0.0
 11
56.547905709547926
 21
-7.3706508756475522
 31
0.0
  0
LINE
  5
C4
100
AcDbEntity
  8
0-2 椅子
370
               5
390
0
  6
Continuous
 62
               7
100
AcDbLine
 10
56.547905709547926
 20
-9.8398935896996402
 30
0.0
 11
59.812349930154163
 21
-9.5567223095940435
 31
0.0
  0
LINE
  5
C5
100
AcDbEntity
  8
0-2 椅子
370
               5
390
0
  6
Continuous
 62
               7
100
AcDbLine
 10
56.547905709547926
 20
-9.9804162547923632
 30
0.0
 11
59.794117503678429
 21
-9.6988285011705013
 31
0.0
  0
LINE
  5
C6
100
AcDbEntity
  8
0-3 駆体
370
               5
390
0
  6
Continuous
 62
               7
100
AcDbLine
 10
68.347890130570164
 20
-18.750003419257702
 30
0.0
 11
68.347890130570164
 21
-15.000002735406161
 31
0.0
  0
LINE
  5
C7
100
AcDbEntity
  8
0-3 駆体
370
               5
390
0
  6
Continuous
 62
               7
100
AcDbLine
 10
87.347863266365607
 20
-22.500004103109241
 30
0.0
 11
87.347863266365607
 21
-18.750003419257702
 31
0.0
  0
LINE
  5
C8
100
AcDbEntity
  8
0-3 駆体
370
               5
390
0
  6
Continuous
 62
               7
100
AcDbLine
 10
68.347890130570164
 20
-18.750003419257702
 30
0.0
 11
87.347863266365607
 21
-18.750003419257702
 31
0.0
  0
LINE
  5
C9
100
AcDbEntity
  8
0-3 駆体
370
               5
390
0
  6
Continuous
 62
               7
100
AcDbLine
 10
87.347863266365607
 20
-22.500004103109241
 30
0.0
 11
106.34790639228187
 21
-22.500004103109241
 31
0.0
  0
LINE
  5
CA
100
AcDbEntity
  8
0-2 椅子
370
               5
390
0
  6
Continuous
 62
               7
100
AcDbLine
 10
75.94790738093667
 20
-7.9499853520374746
 30
0.0
 11
75.94790738093667
 21
-7.3500125387683513
 31
0.0
  0
LINE
  5
CB
100
AcDbEntity
  8
0-2 椅子
370
               5
390
0
  6
Continuous
 62
               7
100
AcDbLine
 10
75.247901187473914
 20
-7.9499853520374746
 30
0.0
 11
75.247901187473914
 21
-14.749998023808002
 31
0.0
  0
LINE
  5
CC
100
AcDbEntity
  8
0-2 椅子
370
               5
390
0
  6
Continuous
 62
               7
100
AcDbLine
 10
74.847890149410816
 20
-14.749998023808002
 30
0.0
 11
74.847890149410816
 21
-18.750003419257702
 31
0.0
  0
LINE
  5
CD
100
AcDbEntity
  8
0-2 椅子
370
               5
390
0
  6
Continuous
 62
               7
100
AcDbLine
 10
70.847884753961111
 20
-14.749998023808002
 30
0.0
 11
70.847884753961111
 21
-18.750003419257702
 31
0.0
  0
LINE
  5
CE
100
AcDbEntity
  8
0-2 椅子
370
               5
390
0
  6
Continuous
 62
               7
100
AcDbLine
 10
74.847890149410816
 20
-18.750003419257702
 30
0.0
 11
70.847884753961111
 21
-18.750003419257702
 31
0.0
  0
LINE
  5
CF
100
AcDbEntity
  8
0-2 椅子
370
               5
390
0
  6
Continuous
 62
               7
100
AcDbLine
 10
68.209729632055385
 20
-2.8585190173331649
 30
0.0
 11
69.527713597370308
 21
-7.3500125387683513
 31
0.0
  0
LINE
  5
D0
100
AcDbEntity
  8
0-2 椅子
370
               5
390
0
  6
Continuous
 62
               7
100
AcDbLine
 10
67.617858175272119
 20
-2.2621157002262771
 30
0.0
 11
69.110852437717838
 21
-7.3500125387683513
 31
0.0
  0
LINE
  5
D1
100
AcDbEntity
  8
0-2 椅子
370
               5
390
0
  6
Continuous
 62
               7
100
AcDbLine
 10
66.347887432845312
 20
-1.8000059274584055
 30
0.0
 11
66.82899952341802
 21
-1.7047318754810841
 31
0.0
  0
LINE
  5
D2
100
AcDbEntity
  8
0-2 椅子
370
               5
390
0
  6
Continuous
 62
               7
100
AcDbLine
 10
66.347887432845312
 20
-1.8000059274584055
 30
0.0
 11
70.175384677983828
 21
-14.843566066590139
 31
0.0
  0
LINE
  5
D3
100
AcDbEntity
  8
0-2 椅子
370
               5
390
0
  6
Continuous
 62
               7
100
AcDbLine
 10
66.970344572430477
 20
-2.186456379611045
 30
0.0
 11
70.656986699402339
 21
-14.749998023808002
 31
0.0
  0
LINE
  5
D4
100
AcDbEntity
  8
0-2 椅子
370
               5
390
0
  6
Continuous
 62
               7
100
AcDbLine
 10
70.175384677983828
 20
-14.843566066590139
 30
0.0
 11
70.656479271026328
 21
-14.74830076337792
 31
0.0
  0
LINE
  5
D5
100
AcDbEntity
  8
0-2 椅子
370
               5
390
0
  6
Continuous
 62
               7
100
AcDbLine
 10
70.907113893711937
 20
-14.749998023808002
 30
0.0
 11
68.911713046431544
 21
-7.9499853520374746
 31
0.0
  0
LINE
  5
D6
100
AcDbEntity
  8
0-2 椅子
370
               5
390
0
  6
Continuous
 62
               7
100
AcDbLine
 10
75.620773556185881
 20
-7.9499853520374746
 30
0.0
 11
75.247901187473914
 21
-7.9499853520374746
 31
0.0
  0
LINE
  5
D7
100
AcDbEntity
  8
0-2 椅子
370
               5
390
0
  6
Continuous
 62
               7
100
AcDbLine
 10
72.711739169145005
 20
-7.9499853520374746
 30
0.0
 11
68.661585852121931
 21
-7.9499853520374746
 31
0.0
  0
LINE
  5
D8
100
AcDbEntity
  8
0-2 椅子
370
               5
390
0
  6
Continuous
 62
               7
100
AcDbLine
 10
75.94790738093667
 20
-7.3500125387683513
 30
0.0
 11
74.66978278943337
 21
-7.3500125387683513
 31
0.0
  0
LINE
  5
D9
100
AcDbEntity
  8
0-2 椅子
370
               5
390
0
  6
Continuous
 62
               7
100
AcDbLine
 10
72.037804295690734
 20
-14.749998023808002
 30
0.0
 11
70.647905481224882
 21
-14.749998023808002
 31
0.0
  0
LINE
  5
DA
100
AcDbEntity
  8
0-2 椅子
370
               5
390
0
  6
Continuous
 62
               7
100
AcDbLine
 10
75.54791384040378
 20
-7.9499853520374746
 30
0.0
 11
75.54791384040378
 21
-14.749998023808002
 31
0.0
  0
LINE
  5
DB
100
AcDbEntity
  8
0-2 椅子
370
               5
390
0
  6
Continuous
 62
               7
100
AcDbLine
 10
75.084439260279765
 20
-7.3500125387683513
 30
0.0
 11
68.485560698239141
 21
-7.3500125387683513
 31
0.0
  0
LINE
  5
DC
100
AcDbEntity
  8
0-2 椅子
370
               5
390
0
  6
Continuous
 62
               7
100
AcDbLine
 10
72.427859239066024
 20
-7.9499853520374746
 30
0.0
 11
75.94790738093667
 21
-7.9499853520374746
 31
0.0
  0
LINE
  5
DD
100
AcDbEntity
  8
0-2 椅子
370
               5
390
0
  6
Continuous
 62
               7
100
AcDbLine
 10
75.54791384040378
 20
-14.749998023808002
 30
0.0
 11
71.806836896957833
 21
-14.749998023808002
 31
0.0
  0
LINE
  5
DE
100
AcDbEntity
  8
0-2 椅子
370
               5
390
0
  6
Continuous
 62
               7
100
AcDbLine
 10
79.116535126129165
 20
-10.93278932643123
 30
0.0
 11
78.794108137004073
 21
-13.448829185022042
 31
0.0
  0
LINE
  5
DF
100
AcDbEntity
  8
0-2 椅子
370
               5
390
0
  6
Continuous
 62
               7
100
AcDbLine
 10
72.732771200453868
 20
-6.8735897862911228
 30
0.0
 11
72.69074213289656
 21
-7.3500125387683513
 31
0.0
  0
LINE
  5
E0
100
AcDbEntity
  8
0-2 椅子
370
               5
390
0
  6
Continuous
 62
               7
100
AcDbLine
 10
72.862112943744293
 20
-6.7869070216454563
 30
0.0
 11
74.66978278943337
 21
-7.3500125387683513
 31
0.0
  0
LINE
  5
E1
100
AcDbEntity
  8
0-2 椅子
370
               5
390
0
  6
Continuous
 62
               7
100
AcDbLine
 10
79.008715344993405
 20
-10.820455182502046
 30
0.0
 11
75.54791384040378
 21
-11.120651559499093
 31
0.0
  0
LINE
  5
E2
100
AcDbEntity
  8
0-2 椅子
370
               5
390
0
  6
Continuous
 62
               7
100
AcDbLine
 10
75.54791384040378
 20
-13.589894273551181
 30
0.0
 11
78.812358061010016
 21
-13.306722993445582
 31
0.0
  0
LINE
  5
E3
100
AcDbEntity
  8
0-2 椅子
370
               5
390
0
  6
Continuous
 62
               7
100
AcDbLine
 10
75.54791384040378
 20
-13.730416938643902
 30
0.0
 11
78.794108137004073
 21
-13.448829185022042
 31
0.0
  0
LINE
  5
E4
100
AcDbEntity
  8
0-2 椅子
370
               5
390
0
  6
Continuous
 62
               7
100
AcDbLine
 10
94.947880516732113
 20
-11.699986035889015
 30
0.0
 11
94.947880516732113
 21
-11.100013222619891
 31
0.0
  0
LINE
  5
E5
100
AcDbEntity
  8
0-2 椅子
370
               5
390
0
  6
Continuous
 62
               7
100
AcDbLine
 10
94.247874323269357
 20
-11.699986035889015
 30
0.0
 11
94.247874323269357
 21
-18.499998707659543
 31
0.0
  0
LINE
  5
E6
100
AcDbEntity
  8
0-2 椅子
370
               5
390
0
  6
Continuous
 62
               7
100
AcDbLine
 10
93.847880782736468
 20
-18.499998707659543
 30
0.0
 11
93.847880782736468
 21
-22.500004103109241
 31
0.0
  0
LINE
  5
E7
100
AcDbEntity
  8
0-2 椅子
370
               5
390
0
  6
Continuous
 62
               7
100
AcDbLine
 10
89.847875387286763
 20
-18.499998707659543
 30
0.0
 11
89.847875387286763
 21
-22.500004103109241
 31
0.0
  0
LINE
  5
E8
100
AcDbEntity
  8
0-2 椅子
370
               5
390
0
  6
Continuous
 62
               7
100
AcDbLine
 10
93.847880782736468
 20
-22.500004103109241
 30
0.0
 11
89.847875387286763
 21
-22.500004103109241
 31
0.0
  0
LINE
  5
E9
100
AcDbEntity
  8
0-2 椅子
370
               5
390
0
  6
Continuous
 62
               7
100
AcDbLine
 10
87.209702767850828
 20
-6.6085197011847052
 30
0.0
 11
88.527721728226169
 21
-11.100013222619891
 31
0.0
  0
LINE
  5
EA
100
AcDbEntity
  8
0-2 椅子
370
               5
390
0
  6
Continuous
 62
               7
100
AcDbLine
 10
86.617866306127979
 20
-6.0121251328429208
 30
0.0
 11
88.110825573513281
 21
-11.100013222619891
 31
0.0
  0
LINE
  5
EB
100
AcDbEntity
  8
0-2 椅子
370
               5
390
0
  6
Continuous
 62
               7
100
AcDbLine
 10
85.347860568640755
 20
-5.5499978625448421
 30
0.0
 11
85.82900765427388
 21
-5.4547325593326246
 31
0.0
  0
LINE
  5
EC
100
AcDbEntity
  8
0-2 椅子
370
               5
390
0
  6
Continuous
 62
               7
100
AcDbLine
 10
85.347860568640755
 20
-5.5499978625448421
 30
0.0
 11
89.17537531130948
 21
-18.593566750441678
 31
0.0
  0
LINE
  5
ED
100
AcDbEntity
  8
0-2 椅子
370
               5
390
0
  6
Continuous
 62
               7
100
AcDbLine
 10
85.970352703286338
 20
-5.9364570634625853
 30
0.0
 11
89.65697733272799
 21
-18.499998707659543
 31
0.0
  0
LINE
  5
EE
100
AcDbEntity
  8
0-2 椅子
370
               5
390
0
  6
Continuous
 62
               7
100
AcDbLine
 10
89.17537531130948
 20
-18.593566750441678
 30
0.0
 11
89.656487401882188
 21
-18.498301447229462
 31
0.0
  0
LINE
  5
EF
100
AcDbEntity
  8
0-2 椅子
370
               5
390
0
  6
Continuous
 62
               7
100
AcDbLine
 10
89.907122024567798
 20
-18.499998707659543
 30
0.0
 11
87.911703679757196
 21
-11.699986035889015
 31
0.0
  0
LINE
  5
F0
100
AcDbEntity
  8
0-2 椅子
370
               5
390
0
  6
Continuous
 62
               7
100
AcDbLine
 10
94.620746691981338
 20
-11.699986035889015
 30
0.0
 11
94.247874323269357
 21
-11.699986035889015
 31
0.0
  0
LINE
  5
F1
100
AcDbEntity
  8
0-2 椅子
370
               5
390
0
  6
Continuous
 62
               7
100
AcDbLine
 10
91.711712304940448
 20
-11.699986035889015
 30
0.0
 11
87.661593982977791
 21
-11.699986035889015
 31
0.0
  0
LINE
  5
F2
100
AcDbEntity
  8
0-2 椅子
370
               5
390
0
  6
Continuous
 62
               7
100
AcDbLine
 10
94.947880516732113
 20
-11.100013222619891
 30
0.0
 11
93.669755925228827
 21
-11.100013222619891
 31
0.0
  0
LINE
  5
F3
100
AcDbEntity
  8
0-2 椅子
370
               5
390
0
  6
Continuous
 62
               7
100
AcDbLine
 10
91.037777431486177
 20
-18.499998707659543
 30
0.0
 11
89.647878617020325
 21
-18.499998707659543
 31
0.0
  0
LINE
  5
F4
100
AcDbEntity
  8
0-2 椅子
370
               5
390
0
  6
Continuous
 62
               7
100
AcDbLine
 10
94.54792197125964
 20
-11.699986035889015
 30
0.0
 11
94.54792197125964
 21
-18.499998707659543
 31
0.0
  0
LINE
  5
F5
100
AcDbEntity
  8
0-2 椅子
370
               5
390
0
  6
Continuous
 62
               7
100
AcDbLine
 10
94.084412396075209
 20
-11.100013222619891
 30
0.0
 11
87.485533834034584
 21
-11.100013222619891
 31
0.0
  0
LINE
  5
F6
100
AcDbEntity
  8
0-2 椅子
370
               5
390
0
  6
Continuous
 62
               7
100
AcDbLine
 10
91.427867369921884
 20
-11.699986035889015
 30
0.0
 11
94.947880516732113
 21
-11.699986035889015
 31
0.0
  0
LINE
  5
F7
100
AcDbEntity
  8
0-2 椅子
370
               5
390
0
  6
Continuous
 62
               7
100
AcDbLine
 10
94.54792197125964
 20
-18.499998707659543
 30
0.0
 11
90.806845027813694
 21
-18.499998707659543
 31
0.0
  0
LINE
  5
F8
100
AcDbEntity
  8
0-2 椅子
370
               5
390
0
  6
Continuous
 62
               7
100
AcDbLine
 10
98.116543256985025
 20
-14.682790010282771
 30
0.0
 11
97.794133765390143
 21
-17.198829868873581
 31
0.0
  0
LINE
  5
F9
100
AcDbEntity
  8
0-2 椅子
370
               5
390
0
  6
Continuous
 62
               7
100
AcDbLine
 10
91.732744336249311
 20
-10.623599218907767
 30
0.0
 11
91.690715268692003
 21
-11.100013222619891
 31
0.0
  0
LINE
  5
FA
100
AcDbEntity
  8
0-2 椅子
370
               5
390
0
  6
Continuous
 62
               7
100
AcDbLine
 10
91.862121074600154
 20
-10.536907705496997
 30
0.0
 11
93.66979092028923
 21
-11.100013222619891
 31
0.0
  0
LINE
  5
FB
100
AcDbEntity
  8
0-2 椅子
370
               5
390
0
  6
Continuous
 62
               7
100
AcDbLine
 10
98.008723475849251
 20
-14.570455866353587
 30
0.0
 11
94.54792197125964
 21
-14.870652243350634
 31
0.0
  0
LINE
  5
FC
100
AcDbEntity
  8
0-2 椅子
370
               5
390
0
  6
Continuous
 62
               7
100
AcDbLine
 10
94.54792197125964
 20
-17.33989495740272
 30
0.0
 11
97.812331196805459
 21
-17.056723677297121
 31
0.0
  0
LINE
  5
FD
100
AcDbEntity
  8
0-2 椅子
370
               5
390
0
  6
Continuous
 62
               7
100
AcDbLine
 10
94.54792197125964
 20
-17.480417622495445
 30
0.0
 11
97.794133765390143
 21
-17.198829868873581
 31
0.0
  0
LINE
  5
FE
100
AcDbEntity
  8
0-3 駆体
370
               5
390
0
  6
Continuous
 62
               7
100
AcDbLine
 10
106.34790639228187
 20
-26.25000478696078
 30
0.0
 11
106.34790639228187
 21
-22.500004103109241
 31
0.0
  0
LINE
  5
FF
100
AcDbEntity
  8
0-3 駆体
370
               5
390
0
  6
Continuous
 62
               7
100
AcDbLine
 10
125.34787952807733
 20
-30.000005470812322
 30
0.0
 11
125.34787952807733
 21
-26.25000478696078
 31
0.0
  0
LINE
  5
100
100
AcDbEntity
  8
0-2 椅子
370
               5
390
0
  6
Continuous
 62
               7
100
AcDbLine
 10
113.94792364264839
 20
-15.449986719740554
 30
0.0
 11
113.94792364264839
 21
-14.850013906471432
 31
0.0
  0
LINE
  5
101
100
AcDbEntity
  8
0-2 椅子
370
               5
390
0
  6
Continuous
 62
               7
100
AcDbLine
 10
113.24791744918562
 20
-15.449986719740554
 30
0.0
 11
113.24791744918562
 21
-22.249999391511082
 31
0.0
  0
LINE
  5
102
100
AcDbEntity
  8
0-2 椅子
370
               5
390
0
  6
Continuous
 62
               7
100
AcDbLine
 10
112.84790641112254
 20
-22.249999391511082
 30
0.0
 11
112.84790641112254
 21
-26.25000478696078
 31
0.0
  0
LINE
  5
103
100
AcDbEntity
  8
0-2 椅子
370
               5
390
0
  6
Continuous
 62
               7
100
AcDbLine
 10
108.84790101567283
 20
-22.249999391511082
 30
0.0
 11
108.84790101567283
 21
-26.25000478696078
 31
0.0
  0
LINE
  5
104
100
AcDbEntity
  8
0-2 椅子
370
               5
390
0
  6
Continuous
 62
               7
100
AcDbLine
 10
112.84790641112254
 20
-26.25000478696078
 30
0.0
 11
108.84790101567283
 21
-26.25000478696078
 31
0.0
  0
LINE
  5
105
100
AcDbEntity
  8
0-2 椅子
370
               5
390
0
  6
Continuous
 62
               7
100
AcDbLine
 10
106.20974589376711
 20
-10.358520385036245
 30
0.0
 11
107.52772985908203
 21
-14.850013906471432
 31
0.0
  0
LINE
  5
106
100
AcDbEntity
  8
0-2 椅子
370
               5
390
0
  6
Continuous
 62
               7
100
AcDbLine
 10
105.61787443698384
 20
-9.7621170679293581
 30
0.0
 11
107.11086869942956
 21
-14.850013906471432
 31
0.0
  0
LINE
  5
107
100
AcDbEntity
  8
0-2 椅子
370
               5
390
0
  6
Continuous
 62
               7
100
AcDbLine
 10
104.34790369455703
 20
-9.3000072951614854
 30
0.0
 11
104.82901578512974
 21
-9.2047332431841635
 31
0.0
  0
LINE
  5
108
100
AcDbEntity
  8
0-2 椅子
370
               5
390
0
  6
Continuous
 62
               7
100
AcDbLine
 10
104.9703608341422
 20
-9.686457747314126
 30
0.0
 11
108.65700296111405
 21
-22.249999391511082
 31
0.0
  0
LINE
  5
109
100
AcDbEntity
  8
0-2 椅子
370
               5
390
0
  6
Continuous
 62
               7
100
AcDbLine
 10
108.90713015542366
 20
-22.249999391511082
 30
0.0
 11
106.91172930814326
 21
-15.449986719740554
 31
0.0
  0
LINE
  5
10A
100
AcDbEntity
  8
0-2 椅子
370
               5
390
0
  6
Continuous
 62
               7
100
AcDbLine
 10
113.6207898178976
 20
-15.449986719740554
 30
0.0
 11
113.24791744918562
 21
-15.449986719740554
 31
0.0
  0
LINE
  5
10B
100
AcDbEntity
  8
0-2 椅子
370
               5
390
0
  6
Continuous
 62
               7
100
AcDbLine
 10
110.71175543085673
 20
-15.449986719740554
 30
0.0
 11
106.66160211383365
 21
-15.449986719740554
 31
0.0
  0
LINE
  5
10C
100
AcDbEntity
  8
0-2 椅子
370
               5
390
0
  6
Continuous
 62
               7
100
AcDbLine
 10
113.94792364264839
 20
-14.850013906471432
 30
0.0
 11
112.66979905114509
 21
-14.850013906471432
 31
0.0
  0
LINE
  5
10D
100
AcDbEntity
  8
0-2 椅子
370
               5
390
0
  6
Continuous
 62
               7
100
AcDbLine
 10
110.03782055740245
 20
-22.249999391511082
 30
0.0
 11
108.6479217429366
 21
-22.249999391511082
 31
0.0
  0
LINE
  5
10E
100
AcDbEntity
  8
0-2 椅子
370
               5
390
0
  6
Continuous
 62
               7
100
AcDbLine
 10
113.5479301021155
 20
-15.449986719740554
 30
0.0
 11
113.5479301021155
 21
-22.249999391511082
 31
0.0
  0
LINE
  5
10F
100
AcDbEntity
  8
0-2 椅子
370
               5
390
0
  6
Continuous
 62
               7
100
AcDbLine
 10
113.08445552199147
 20
-14.850013906471432
 30
0.0
 11
106.48557695995085
 21
-14.850013906471432
 31
0.0
  0
LINE
  5
110
100
AcDbEntity
  8
0-2 椅子
370
               5
390
0
  6
Continuous
 62
               7
100
AcDbLine
 10
110.42787550077774
 20
-15.449986719740554
 30
0.0
 11
113.94792364264839
 21
-15.449986719740554
 31
0.0
  0
LINE
  5
111
100
AcDbEntity
  8
0-2 椅子
370
               5
390
0
  6
Continuous
 62
               7
100
AcDbLine
 10
113.5479301021155
 20
-22.249999391511082
 30
0.0
 11
109.80685315866955
 21
-22.249999391511082
 31
0.0
  0
LINE
  5
112
100
AcDbEntity
  8
0-2 椅子
370
               5
390
0
  6
Continuous
 62
               7
100
AcDbLine
 10
117.11655138784089
 20
-18.432790694134312
 30
0.0
 11
116.79412439871579
 21
-20.948830552725124
 31
0.0
  0
LINE
  5
113
100
AcDbEntity
  8
0-2 椅子
370
               5
390
0
  6
Continuous
 62
               7
100
AcDbLine
 10
110.73278746216558
 20
-14.373591153994203
 30
0.0
 11
110.69075839460828
 21
-14.850013906471432
 31
0.0
  0
LINE
  5
114
100
AcDbEntity
  8
0-2 椅子
370
               5
390
0
  6
Continuous
 62
               7
100
AcDbLine
 10
110.862129205456
 20
-14.286908389348538
 30
0.0
 11
112.66979905114509
 21
-14.850013906471432
 31
0.0
  0
LINE
  5
115
100
AcDbEntity
  8
0-2 椅子
370
               5
390
0
  6
Continuous
 62
               7
100
AcDbLine
 10
117.00873160670511
 20
-18.320456550205126
 30
0.0
 11
113.5479301021155
 21
-18.620652927202173
 31
0.0
  0
LINE
  5
116
100
AcDbEntity
  8
0-2 椅子
370
               5
390
0
  6
Continuous
 62
               7
100
AcDbLine
 10
113.5479301021155
 20
-21.089895641254262
 30
0.0
 11
116.81237432272174
 21
-20.806724361148664
 31
0.0
  0
LINE
  5
117
100
AcDbEntity
  8
0-2 椅子
370
               5
390
0
  6
Continuous
 62
               7
100
AcDbLine
 10
113.5479301021155
 20
-21.230418306346984
 30
0.0
 11
116.79412439871579
 21
-20.948830552725124
 31
0.0
  0
LINE
  5
118
100
AcDbEntity
  8
0-2 椅子
370
               5
390
0
  6
Continuous
 62
               7
100
AcDbLine
 10
132.94789677844383
 20
-19.199987403592097
 30
0.0
 11
132.94789677844383
 21
-18.600014590322971
 31
0.0
  0
LINE
  5
119
100
AcDbEntity
  8
0-2 椅子
370
               5
390
0
  6
Continuous
 62
               7
100
AcDbLine
 10
132.24789058498106
 20
-19.199987403592097
 30
0.0
 11
132.24789058498106
 21
-26.000000075362625
 31
0.0
  0
LINE
  5
11A
100
AcDbEntity
  8
0-2 椅子
370
               5
390
0
  6
Continuous
 62
               7
100
AcDbLine
 10
131.84789704444819
 20
-26.000000075362625
 30
0.0
 11
131.84789704444819
 21
-30.000005470812322
 31
0.0
  0
LINE
  5
11B
100
AcDbEntity
  8
0-2 椅子
370
               5
390
0
  6
Continuous
 62
               7
100
AcDbLine
 10
127.84789164899848
 20
-26.000000075362625
 30
0.0
 11
127.84789164899848
 21
-30.000005470812322
 31
0.0
  0
LINE
  5
11C
100
AcDbEntity
  8
0-2 椅子
370
               5
390
0
  6
Continuous
 62
               7
100
AcDbLine
 10
131.84789704444819
 20
-30.000005470812322
 30
0.0
 11
127.84789164899848
 21
-30.000005470812322
 31
0.0
  0
LINE
  5
11D
100
AcDbEntity
  8
0-2 椅子
370
               5
390
0
  6
Continuous
 62
               7
100
AcDbLine
 10
125.20971902956255
 20
-14.108521068887786
 30
0.0
 11
126.52773798993789
 21
-18.600014590322971
 31
0.0
  0
LINE
  5
11E
100
AcDbEntity
  8
0-2 椅子
370
               5
390
0
  6
Continuous
 62
               7
100
AcDbLine
 10
124.6178825678397
 20
-13.512126500546001
 30
0.0
 11
126.110841835225
 21
-18.600014590322971
 31
0.0
  0
LINE
  5
11F
100
AcDbEntity
  8
0-2 椅子
370
               5
390
0
  6
Continuous
 62
               7
100
AcDbLine
 10
123.34787683035248
 20
-13.049999230247922
 30
0.0
 11
123.8290239159856
 21
-12.954733927035704
 31
0.0
  0
LINE
  5
120
100
AcDbEntity
  8
0-2 椅子
370
               5
390
0
  6
Continuous
 62
               7
100
AcDbLine
 10
123.34787683035248
 20
-13.049999230247922
 30
0.0
 11
127.17539157302119
 21
-26.093568118144759
 31
0.0
  0
LINE
  5
121
100
AcDbEntity
  8
0-2 椅子
370
               5
390
0
  6
Continuous
 62
               7
100
AcDbLine
 10
123.97036896499806
 20
-13.436458431165665
 30
0.0
 11
127.6569935944397
 21
-26.000000075362625
 31
0.0
  0
LINE
  5
122
100
AcDbEntity
  8
0-2 椅子
370
               5
390
0
  6
Continuous
 62
               7
100
AcDbLine
 10
127.17539157302119
 20
-26.093568118144759
 30
0.0
 11
127.65650366359391
 21
-25.99830281493254
 31
0.0
  0
LINE
  5
123
100
AcDbEntity
  8
0-2 椅子
370
               5
390
0
  6
Continuous
 62
               7
100
AcDbLine
 10
127.90713828627952
 20
-26.000000075362625
 30
0.0
 11
125.91171994146892
 21
-19.199987403592097
 31
0.0
  0
LINE
  5
124
100
AcDbEntity
  8
0-2 椅子
370
               5
390
0
  6
Continuous
 62
               7
100
AcDbLine
 10
132.62076295369306
 20
-19.199987403592097
 30
0.0
 11
132.24789058498106
 21
-19.199987403592097
 31
0.0
  0
LINE
  5
125
100
AcDbEntity
  8
0-2 椅子
370
               5
390
0
  6
Continuous
 62
               7
100
AcDbLine
 10
129.71172856665217
 20
-19.199987403592097
 30
0.0
 11
125.66161024468951
 21
-19.199987403592097
 31
0.0
  0
LINE
  5
126
100
AcDbEntity
  8
0-2 椅子
370
               5
390
0
  6
Continuous
 62
               7
100
AcDbLine
 10
132.94789677844383
 20
-18.600014590322971
 30
0.0
 11
131.66977218694055
 21
-18.600014590322971
 31
0.0
  0
LINE
  5
127
100
AcDbEntity
  8
0-2 椅子
370
               5
390
0
  6
Continuous
 62
               7
100
AcDbLine
 10
129.0377936931979
 20
-26.000000075362625
 30
0.0
 11
127.64789487873205
 21
-26.000000075362625
 31
0.0
  0
LINE
  5
128
100
AcDbEntity
  8
0-2 椅子
370
               5
390
0
  6
Continuous
 62
               7
100
AcDbLine
 10
132.54793823297135
 20
-19.199987403592097
 30
0.0
 11
132.54793823297135
 21
-26.000000075362625
 31
0.0
  0
LINE
  5
129
100
AcDbEntity
  8
0-2 椅子
370
               5
390
0
  6
Continuous
 62
               7
100
AcDbLine
 10
132.08442865778693
 20
-18.600014590322971
 30
0.0
 11
125.48555009574629
 21
-18.600014590322971
 31
0.0
  0
LINE
  5
12A
100
AcDbEntity
  8
0-2 椅子
370
               5
390
0
  6
Continuous
 62
               7
100
AcDbLine
 10
129.42788363163359
 20
-19.199987403592097
 30
0.0
 11
132.94789677844383
 21
-19.199987403592097
 31
0.0
  0
LINE
  5
12B
100
AcDbEntity
  8
0-2 椅子
370
               5
390
0
  6
Continuous
 62
               7
100
AcDbLine
 10
132.54793823297135
 20
-26.000000075362625
 30
0.0
 11
128.80686128952541
 21
-26.000000075362625
 31
0.0
  0
LINE
  5
12C
100
AcDbEntity
  8
0-2 椅子
370
               5
390
0
  6
Continuous
 62
               7
100
AcDbLine
 10
136.11655951869673
 20
-22.182791377985851
 30
0.0
 11
135.79415002710186
 21
-24.698831236576662
 31
0.0
  0
LINE
  5
12D
100
AcDbEntity
  8
0-2 椅子
370
               5
390
0
  6
Continuous
 62
               7
100
AcDbLine
 10
129.73276059796103
 20
-18.123600586610845
 30
0.0
 11
129.69073153040372
 21
-18.600014590322971
 31
0.0
  0
LINE
  5
12E
100
AcDbEntity
  8
0-2 椅子
370
               5
390
0
  6
Continuous
 62
               7
100
AcDbLine
 10
129.86213733631186
 20
-18.036909073200079
 30
0.0
 11
131.66980718200097
 21
-18.600014590322971
 31
0.0
  0
LINE
  5
12F
100
AcDbEntity
  8
0-2 椅子
370
               5
390
0
  6
Continuous
 62
               7
100
AcDbLine
 10
136.00873973756097
 20
-22.070457234056668
 30
0.0
 11
132.54793823297135
 21
-22.370653611053712
 31
0.0
  0
LINE
  5
130
100
AcDbEntity
  8
0-2 椅子
370
               5
390
0
  6
Continuous
 62
               7
100
AcDbLine
 10
132.54793823297135
 20
-24.839896325105801
 30
0.0
 11
135.81234745851719
 21
-24.556725045000203
 31
0.0
  0
LINE
  5
131
100
AcDbEntity
  8
0-2 椅子
370
               5
390
0
  6
Continuous
 62
               7
100
AcDbLine
 10
132.54793823297135
 20
-24.980418990198523
 30
0.0
 11
135.79415002710186
 21
-24.698831236576662
 31
0.0
  0
LINE
  5
132
100
AcDbEntity
  8
0-3 駆体
370
               5
390
0
  6
Continuous
 62
               7
100
AcDbLine
 10
97.447875140123074
 20
76.999998877225451
 30
0.0
 11
90.447865698086105
 21
66.000001537268986
 31
0.0
  0
LINE
  5
133
100
AcDbEntity
  8
0-0 枠
370
               5
390
0
  6
Continuous
 62
               7
100
AcDbLine
 10
-144.49999368902297
 20
101.49806345220655
 30
0.0
 11
144.49999368902297
 21
101.49806345220655
 31
0.0
  0
LINE
  5
134
100
AcDbEntity
  8
0-0 枠
370
               5
390
0
  6
Continuous
 62
               7
100
AcDbLine
 10
144.49999368902297
 20
-97.498068992713229
 30
0.0
 11
-144.49999368902297
 21
-97.498068992713229
 31
0.0
  0
LINE
  5
135
100
AcDbEntity
  8
0-0 枠
370
               5
390
0
  6
Continuous
 62
               7
100
AcDbLine
 10
80.499994849478824
 20
-93.498069065241722
 30
0.0
 11
80.499994849478824
 21
-101.49806892018475
 31
0.0
  0
LINE
  5
136
100
AcDbEntity
  8
0-0 枠
370
               5
390
0
  6
Continuous
 62
               7
100
AcDbLine
 10
144.49999368902297
 20
-101.49806892018475
 30
0.0
 11
-144.49999368902297
 21
-101.49806892018475
 31
0.0
  0
LINE
  5
137
100
AcDbEntity
  8
0-3 駆体
370
               5
390
0
  6
Continuous
 62
               7
100
AcDbLine
 10
125.34787952807733
 20
-30.000005470812322
 30
0.0
 11
136.99474306225778
 21
-30.000005470812322
 31
0.0
  0
LINE
  5
138
100
AcDbEntity
  8
0-3 駆体
370
               5
390
0
  6
Continuous
 62
               7
100
AcDbLine
 10
-68.552121303146706
 20
26.000000075362625
 30
0.0
 11
-68.552121303146706
 21
0.0
 31
0.0
  0
LINE
  5
139
100
AcDbEntity
  8
0-3 駆体
370
               5
390
0
  6
Continuous
 62
               7
100
AcDbLine
 10
-68.552121303146706
 20
17.99999803322833
 30
0.0
 11
-90.017373962402345
 21
17.99999803322833
 31
0.0
  0
LINE
  5
13A
100
AcDbEntity
  8
0-3 駆体
370
               5
390
0
  6
Continuous
 62
               7
100
AcDbLine
 10
-90.017373962402345
 20
17.99999803322833
 30
0.0
 11
-90.017373962402345
 21
22.99999602877535
 31
0.0
  0
LINE
  5
13B
100
AcDbEntity
  8
0-3 駆体
370
               5
390
0
  6
Continuous
 62
               7
100
AcDbLine
 10
-68.552121303146706
 20
60.000010941624645
 30
0.0
 11
-68.552121303146706
 21
52.000000150725249
 31
0.0
  0
LINE
  5
13C
100
AcDbEntity
  8
0-3 駆体
370
               5
390
0
  6
Continuous
 62
               7
100
AcDbLine
 10
90.447865698086105
 20
66.000001537268986
 30
0.0
 11
-55.552121265465395
 21
56.000005546174947
 31
0.0
  0
LINE
  5
13D
100
AcDbEntity
  8
0-2 椅子
370
               5
390
0
  6
Continuous
 62
               7
100
AcDbLine
 10
104.34790369455703
 20
-9.3000072951614854
 30
0.0
 11
108.17540093969554
 21
-22.343567434293217
 31
0.0
  0
LINE
  5
13E
100
AcDbEntity
  8
0-2 椅子
370
               5
390
0
  6
Continuous
 62
               7
100
AcDbLine
 10
108.65649553273805
 20
-22.248302131081001
 30
0.0
 11
108.17540093969554
 21
-22.343567434293217
 31
0.0
  0
LINE
  5
13F
100
AcDbEntity
  8
0-3 駆体
370
               5
390
0
  6
Continuous
 62
               7
100
AcDbLine
 10
106.34790639228187
 20
-26.25000478696078
 30
0.0
 11
125.34787952807733
 21
-26.25000478696078
 31
0.0
  0
LINE
  5
140
100
AcDbEntity
  8
0-3 駆体
370
               5
390
0
  6
Continuous
 62
               7
100
AcDbLine
 10
107.34787274608389
 20
-28.430127060636877
 30
0.0
 11
-5.1521390206972137
 21
-7.9565294283349068
 31
0.0
  0
LINE
  5
141
100
AcDbEntity
  8
0-3 駆体
370
               5
390
0
  6
Continuous
 62
               7
100
AcDbLine
 10
-7.6521161465579643
 20
-3.7500006838515403
 30
0.0
 11
-7.6521161465579643
 21
-69.95652994453674
 31
0.0
  0
LINE
  5
142
100
AcDbEntity
  8
0-3 駆体
370
               5
390
0
  6
Continuous
 62
               7
100
AcDbLine
 10
-5.1521215231670068
 20
-7.9565294283349068
 30
0.0
 11
-5.1521215231670068
 21
-69.95652994453674
 31
0.0
  0
LINE
  5
143
100
AcDbEntity
  8
0-0 枠
370
               5
390
0
  6
Continuous
 62
               7
100
AcDbLine
 10
144.49999368902297
 20
-93.498069065241722
 30
0.0
 11
-144.49999368902297
 21
-93.498069065241722
 31
0.0
  0
LINE
  5
144
100
AcDbEntity
  8
0-3 駆体
370
               5
390
0
  6
Continuous
 62
               7
100
AcDbLine
 10
117.34788623470813
 20
-30.250010182410477
 30
0.0
 11
136.99474306225778
 21
-33.825486125594473
 31
0.0
  0
LINE
  5
145
100
AcDbEntity
  8
0-3 駆体
370
               5
390
0
  6
Continuous
 62
               7
100
AcDbLine
 10
136.99474306225778
 20
-30.000005470812322
 30
0.0
 11
136.99474306225778
 21
-33.825486125594473
 31
0.0
  0
LINE
  5
146
100
AcDbEntity
  8
0-0 枠
370
               5
390
0
  6
Continuous
 62
               7
100
AcDbLine
 10
144.49999368902297
 20
101.49806345220655
 30
0.0
 11
144.49999368902297
 21
-101.49806345220655
 31
0.0
  0
LINE
  5
147
100
AcDbEntity
  8
0-3 駆体
370
               5
390
0
  6
Continuous
 62
               7
100
AcDbLine
 10
136.99474306225778
 20
-69.95652994453674
 30
0.0
 11
136.99474306225778
 21
-73.956530965603889
 31
0.0
  0
LINE
  5
148
100
AcDbEntity
  8
0-3 駆体
370
               5
390
0
  6
Continuous
 62
               7
100
AcDbLine
 10
-7.6521161465579643
 20
-69.95652994453674
 30
0.0
 11
-134.55212284041568
 21
-69.95652994453674
 31
0.0
  0
LINE
  5
149
100
AcDbEntity
  8
0-3 駆体
370
               5
390
0
  6
Continuous
 62
               7
100
AcDbLine
 10
97.447875140123074
 20
76.999998877225451
 30
0.0
 11
-138.55212823586538
 21
76.999998877225451
 31
0.0
  0
LINE
  5
14A
100
AcDbEntity
  8
0-3 駆体
370
               5
390
0
  6
Continuous
 62
               7
100
AcDbLine
 10
-134.55211955962878
 20
22.99999602877535
 30
0.0
 11
-134.55211955962878
 21
60.000010941624645
 31
0.0
  0
LINE
  5
14B
100
AcDbEntity
  8
0-3 駆体
370
               5
390
0
  6
Continuous
 62
               7
100
AcDbLine
 10
117.34788623470813
 20
-30.250010182410477
 30
0.0
 11
117.34788623470813
 21
-69.95652994453674
 31
0.0
  0
LINE
  5
14C
100
AcDbEntity
  8
0-3 駆体
370
               5
390
0
  6
Continuous
 62
               7
100
AcDbLine
 10
107.34787274608389
 20
-28.430127060636877
 30
0.0
 11
107.34787274608389
 21
-69.95652994453674
 31
0.0
  0
LINE
  5
14D
100
AcDbEntity
  8
0-3 駆体
370
               5
390
0
  6
Continuous
 62
               7
100
AcDbLine
 10
136.99474306225778
 20
-69.95652994453674
 30
0.0
 11
117.34788623470813
 21
-69.95652994453674
 31
0.0
  0
LINE
  5
14E
100
AcDbEntity
  8
0-3 駆体
370
               5
390
0
  6
Continuous
 62
               7
100
AcDbLine
 10
107.34787274608389
 20
-69.95652994453674
 30
0.0
 11
-5.1521215231670068
 21
-69.95652994453674
 31
0.0
  0
LINE
  5
14F
100
AcDbEntity
  8
0-3 駆体
370
               5
390
0
  6
Continuous
 62
               7
100
AcDbLine
 10
136.99474306225778
 20
-73.956530965603889
 30
0.0
 11
-138.55212823586538
 21
-73.956530965603889
 31
0.0
  0
LINE
  5
150
100
AcDbEntity
  8
0-3 駆体
370
               5
390
0
  6
Continuous
 62
               7
100
AcDbLine
 10
-55.552121265465395
 20
56.000005546174947
 30
0.0
 11
-55.552121265465395
 21
52.000000150725249
 31
0.0
  0
LINE
  5
151
100
AcDbEntity
  8
0-0 枠
370
               5
390
0
  6
Continuous
 62
               7
100
AcDbLine
 10
-144.49999915700116
 20
101.49806345220655
 30
0.0
 11
-144.49999915700116
 21
-101.49806345220655
 31
0.0
  0
LINE
  5
152
100
AcDbEntity
  8
0-3 駆体
370
               5
390
0
  6
Continuous
 62
               7
100
AcDbLine
 10
-7.6521161465579643
 20
0.0
 30
0.0
 11
-138.55211948710027
 21
0.0
 31
0.0
  0
LINE
  5
153
100
AcDbEntity
  8
0-3 駆体
370
               5
390
0
  6
Continuous
 62
               7
100
AcDbLine
 10
-134.55211955962878
 20
-69.956525570154199
 30
0.0
 11
-134.55211955962878
 21
-3.9999966466845946
 31
0.0
  0
LINE
  5
154
100
AcDbEntity
  8
0-3 駆体
370
               5
390
0
  6
Continuous
 62
               7
100
AcDbLine
 10
-7.6521161465579643
 20
-3.9999966466845946
 30
0.0
 11
-134.55212284041568
 21
-3.9999966466845946
 31
0.0
  0
LINE
  5
155
100
AcDbEntity
  8
0-3 駆体
370
               5
390
0
  6
Continuous
 62
               7
100
AcDbLine
 10
-138.55211948710027
 20
-73.956530965603889
 30
0.0
 11
-138.55211948710027
 21
76.999998877225451
 31
0.0
  0
LINE
  5
156
100
AcDbEntity
  8
0-3 駆体
370
               5
390
0
  6
Continuous
 62
               7
100
AcDbLine
 10
-30.552122538965197
 20
17.500006107562221
 30
0.0
 11
-30.552122538965197
 21
0.0
 31
0.0
  0
LINE
  5
157
100
AcDbEntity
  8
0-3 駆体
370
               5
390
0
  6
Continuous
 62
               7
100
AcDbLine
 10
-29.55212119010277
 20
17.500006107562221
 30
0.0
 11
-29.55212119010277
 21
0.0
 31
0.0
  0
LINE
  5
158
100
AcDbEntity
  8
0-3 駆体
370
               5
390
0
  6
Continuous
 62
               7
100
AcDbLine
 10
-61.852124514039609
 20
26.000000075362625
 30
0.0
 11
-62.252118054572492
 21
26.000000075362625
 31
0.0
  0
LINE
  5
159
100
AcDbEntity
  8
0-2 椅子
370
               5
390
0
  6
Continuous
 62
               7
100
AcDbLine
 10
-77.552120319760874
 20
28.80002484921366
 30
0.0
 11
-77.552120319760874
 21
29.399988913717682
 31
0.0
  0
LINE
  5
15A
100
AcDbEntity
  8
0-2 椅子
370
               5
390
0
  6
Continuous
 62
               7
100
AcDbLine
 10
-78.252126513223629
 20
28.80002484921366
 30
0.0
 11
-78.252126513223629
 21
22.000003428678028
 31
0.0
  0
LINE
  5
15B
100
AcDbEntity
  8
0-2 椅子
370
               5
390
0
  6
Continuous
 62
               7
100
AcDbLine
 10
-78.652120053756519
 20
22.000003428678028
 30
0.0
 11
-78.652120053756519
 21
17.99999803322833
 31
0.0
  0
LINE
  5
15C
100
AcDbEntity
  8
0-2 椅子
370
               5
390
0
  6
Continuous
 62
               7
100
AcDbLine
 10
-82.652116700441113
 20
22.000003428678028
 30
0.0
 11
-82.652116700441113
 21
17.99999803322833
 31
0.0
  0
LINE
  5
15D
100
AcDbEntity
  8
0-2 椅子
370
               5
390
0
  6
Continuous
 62
               7
100
AcDbLine
 10
-78.652120053756519
 20
17.99999803322833
 30
0.0
 11
-82.652116700441113
 21
17.99999803322833
 31
0.0
  0
LINE
  5
15E
100
AcDbEntity
  8
0-2 椅子
370
               5
390
0
  6
Continuous
 62
               7
100
AcDbLine
 10
-85.29028057111195
 20
33.891482435152867
 30
0.0
 11
-83.972305354562124
 21
29.399988913717682
 31
0.0
  0
LINE
  5
15F
100
AcDbEntity
  8
0-2 椅子
370
               5
390
0
  6
Continuous
 62
               7
100
AcDbLine
 10
-85.882143279130105
 20
34.487885752259757
 30
0.0
 11
-84.389166514214594
 21
29.399988913717682
 31
0.0
  0
LINE
  5
160
100
AcDbEntity
  8
0-2 椅子
370
               5
390
0
  6
Continuous
 62
               7
100
AcDbLine
 10
-87.152122770322023
 20
34.949995525027624
 30
0.0
 11
-86.671010679749301
 21
35.045269577004944
 31
0.0
  0
LINE
  5
161
100
AcDbEntity
  8
0-2 椅子
370
               5
390
0
  6
Continuous
 62
               7
100
AcDbLine
 10
-87.152122770322023
 20
34.949995525027624
 30
0.0
 11
-83.324634273948618
 21
21.906435385895893
 31
0.0
  0
LINE
  5
162
100
AcDbEntity
  8
0-2 椅子
370
               5
390
0
  6
Continuous
 62
               7
100
AcDbLine
 10
-86.529656881971746
 20
34.563545072874987
 30
0.0
 11
-82.843023503764996
 21
22.000003428678028
 31
0.0
  0
LINE
  5
163
100
AcDbEntity
  8
0-2 椅子
370
               5
390
0
  6
Continuous
 62
               7
100
AcDbLine
 10
-83.324634273948618
 20
21.906435385895893
 30
0.0
 11
-82.843530932141007
 21
22.001700689108112
 31
0.0
  0
LINE
  5
164
100
AcDbEntity
  8
0-2 椅子
370
               5
390
0
  6
Continuous
 62
               7
100
AcDbLine
 10
-82.592905058220495
 20
22.000003428678028
 30
0.0
 11
-84.588288407970694
 21
28.80002484921366
 31
0.0
  0
LINE
  5
165
100
AcDbEntity
  8
0-2 椅子
370
               5
390
0
  6
Continuous
 62
               7
100
AcDbLine
 10
-77.879245395746551
 20
28.80002484921366
 30
0.0
 11
-78.252126513223629
 21
28.80002484921366
 31
0.0
  0
LINE
  5
166
100
AcDbEntity
  8
0-2 椅子
370
               5
390
0
  6
Continuous
 62
               7
100
AcDbLine
 10
-80.788297280317636
 20
28.80002484921366
 30
0.0
 11
-84.838424351045404
 21
28.80002484921366
 31
0.0
  0
LINE
  5
167
100
AcDbEntity
  8
0-2 椅子
370
               5
390
0
  6
Continuous
 62
               7
100
AcDbLine
 10
-77.552120319760874
 20
29.399988913717682
 30
0.0
 11
-78.83024491126416
 21
29.399988913717682
 31
0.0
  0
LINE
  5
168
100
AcDbEntity
  8
0-2 椅子
370
               5
390
0
  6
Continuous
 62
               7
100
AcDbLine
 10
-81.46222340500681
 20
22.000003428678028
 30
0.0
 11
-82.85211347070755
 21
22.000003428678028
 31
0.0
  0
LINE
  5
169
100
AcDbEntity
  8
0-2 椅子
370
               5
390
0
  6
Continuous
 62
               7
100
AcDbLine
 10
-77.952105111528653
 20
28.80002484921366
 30
0.0
 11
-77.952105111528653
 21
22.000003428678028
 31
0.0
  0
LINE
  5
16A
100
AcDbEntity
  8
0-2 椅子
370
               5
390
0
  6
Continuous
 62
               7
100
AcDbLine
 10
-78.415579691652681
 20
29.399988913717682
 30
0.0
 11
-85.014475751223515
 21
29.399988913717682
 31
0.0
  0
LINE
  5
16B
100
AcDbEntity
  8
0-2 椅子
370
               5
390
0
  6
Continuous
 62
               7
100
AcDbLine
 10
-81.072142215336214
 20
28.80002484921366
 30
0.0
 11
-77.552120319760874
 21
28.80002484921366
 31
0.0
  0
LINE
  5
16C
100
AcDbEntity
  8
0-2 椅子
370
               5
390
0
  6
Continuous
 62
               7
100
AcDbLine
 10
-77.952105111528653
 20
22.000003428678028
 30
0.0
 11
-81.693164557444405
 21
22.000003428678028
 31
0.0
  0
LINE
  5
16D
100
AcDbEntity
  8
0-2 椅子
370
               5
390
0
  6
Continuous
 62
               7
100
AcDbLine
 10
-74.383470702655615
 20
25.817212126054802
 30
0.0
 11
-74.705897691780706
 21
23.301181016229094
 31
0.0
  0
LINE
  5
16E
100
AcDbEntity
  8
0-2 椅子
370
               5
390
0
  6
Continuous
 62
               7
100
AcDbLine
 10
-80.767247751478578
 20
29.876402917429804
 30
0.0
 11
-80.809285567800984
 21
29.399988913717682
 31
0.0
  0
LINE
  5
16F
100
AcDbEntity
  8
0-2 椅子
370
               5
390
0
  6
Continuous
 62
               7
100
AcDbLine
 10
-80.637888510657945
 20
29.963094430840574
 30
0.0
 11
-78.83024491126416
 21
29.399988913717682
 31
0.0
  0
LINE
  5
170
100
AcDbEntity
  8
0-2 椅子
370
               5
390
0
  6
Continuous
 62
               7
100
AcDbLine
 10
-74.491307981321583
 20
25.929546269983984
 30
0.0
 11
-77.952105111528653
 21
25.629358641752042
 31
0.0
  0
LINE
  5
171
100
AcDbEntity
  8
0-2 椅子
370
               5
390
0
  6
Continuous
 62
               7
100
AcDbLine
 10
-77.952105111528653
 20
23.160115927699955
 30
0.0
 11
-74.68768276283518
 21
23.443278459040449
 31
0.0
  0
LINE
  5
172
100
AcDbEntity
  8
0-2 椅子
370
               5
390
0
  6
Continuous
 62
               7
100
AcDbLine
 10
-77.952105111528653
 20
23.01958451384213
 30
0.0
 11
-74.705897691780706
 21
23.301181016229094
 31
0.0
  0
LINE
  5
173
100
AcDbEntity
  8
0-2 椅子
370
               5
390
0
  6
Continuous
 62
               7
100
AcDbLine
 10
-99.017372979016514
 20
33.800022844760676
 30
0.0
 11
-99.017372979016514
 21
34.399986909264697
 31
0.0
  0
LINE
  5
174
100
AcDbEntity
  8
0-2 椅子
370
               5
390
0
  6
Continuous
 62
               7
100
AcDbLine
 10
-99.717379172479269
 20
33.800022844760676
 30
0.0
 11
-99.717379172479269
 21
27.000001424225047
 31
0.0
  0
LINE
  5
175
100
AcDbEntity
  8
0-2 椅子
370
               5
390
0
  6
Continuous
 62
               7
100
AcDbLine
 10
-100.11737271301216
 20
27.000001424225047
 30
0.0
 11
-100.11737271301216
 21
22.99999602877535
 31
0.0
  0
LINE
  5
176
100
AcDbEntity
  8
0-2 椅子
370
               5
390
0
  6
Continuous
 62
               7
100
AcDbLine
 10
-104.11736935969675
 20
27.000001424225047
 30
0.0
 11
-104.11736935969675
 21
22.99999602877535
 31
0.0
  0
LINE
  5
177
100
AcDbEntity
  8
0-2 椅子
370
               5
390
0
  6
Continuous
 62
               7
100
AcDbLine
 10
-100.11737271301216
 20
22.99999602877535
 30
0.0
 11
-104.11736935969675
 21
22.99999602877535
 31
0.0
  0
LINE
  5
178
100
AcDbEntity
  8
0-2 椅子
370
               5
390
0
  6
Continuous
 62
               7
100
AcDbLine
 10
-106.75553323036759
 20
38.891480430699886
 30
0.0
 11
-105.43755801381776
 21
34.399986909264697
 31
0.0
  0
LINE
  5
179
100
AcDbEntity
  8
0-2 椅子
370
               5
390
0
  6
Continuous
 62
               7
100
AcDbLine
 10
-107.34739593838574
 20
39.487883747806777
 30
0.0
 11
-105.85441917347023
 21
34.399986909264697
 31
0.0
  0
LINE
  5
17A
100
AcDbEntity
  8
0-2 椅子
370
               5
390
0
  6
Continuous
 62
               7
100
AcDbLine
 10
-108.61737542957766
 20
39.949993520574644
 30
0.0
 11
-108.13626333900494
 21
40.045267572551964
 31
0.0
  0
LINE
  5
17B
100
AcDbEntity
  8
0-2 椅子
370
               5
390
0
  6
Continuous
 62
               7
100
AcDbLine
 10
-108.61737542957766
 20
39.949993520574644
 30
0.0
 11
-104.78988693320426
 21
26.906433381442913
 31
0.0
  0
LINE
  5
17C
100
AcDbEntity
  8
0-2 椅子
370
               5
390
0
  6
Continuous
 62
               7
100
AcDbLine
 10
-107.99490954122739
 20
39.563543068422007
 30
0.0
 11
-104.30827616302064
 21
27.000001424225047
 31
0.0
  0
LINE
  5
17D
100
AcDbEntity
  8
0-2 椅子
370
               5
390
0
  6
Continuous
 62
               7
100
AcDbLine
 10
-104.78988693320426
 20
26.906433381442913
 30
0.0
 11
-104.30878359139665
 21
27.001698684655132
 31
0.0
  0
LINE
  5
17E
100
AcDbEntity
  8
0-2 椅子
370
               5
390
0
  6
Continuous
 62
               7
100
AcDbLine
 10
-104.05815771747613
 20
27.000001424225047
 30
0.0
 11
-106.05354106722632
 21
33.800022844760676
 31
0.0
  0
LINE
  5
17F
100
AcDbEntity
  8
0-2 椅子
370
               5
390
0
  6
Continuous
 62
               7
100
AcDbLine
 10
-99.344498055002191
 20
33.800022844760676
 30
0.0
 11
-99.717379172479269
 21
33.800022844760676
 31
0.0
  0
LINE
  5
180
100
AcDbEntity
  8
0-2 椅子
370
               5
390
0
  6
Continuous
 62
               7
100
AcDbLine
 10
-102.25354993957328
 20
33.800022844760676
 30
0.0
 11
-106.30367701030104
 21
33.800022844760676
 31
0.0
  0
LINE
  5
181
100
AcDbEntity
  8
0-2 椅子
370
               5
390
0
  6
Continuous
 62
               7
100
AcDbLine
 10
-99.017372979016514
 20
34.399986909264697
 30
0.0
 11
-100.2954975705198
 21
34.399986909264697
 31
0.0
  0
LINE
  5
182
100
AcDbEntity
  8
0-2 椅子
370
               5
390
0
  6
Continuous
 62
               7
100
AcDbLine
 10
-102.92747606426245
 20
27.000001424225047
 30
0.0
 11
-104.31736612996319
 21
27.000001424225047
 31
0.0
  0
LINE
  5
183
100
AcDbEntity
  8
0-2 椅子
370
               5
390
0
  6
Continuous
 62
               7
100
AcDbLine
 10
-99.417357770784292
 20
33.800022844760676
 30
0.0
 11
-99.417357770784292
 21
27.000001424225047
 31
0.0
  0
LINE
  5
184
100
AcDbEntity
  8
0-2 椅子
370
               5
390
0
  6
Continuous
 62
               7
100
AcDbLine
 10
-99.880832350908321
 20
34.399986909264697
 30
0.0
 11
-106.47972841047915
 21
34.399986909264697
 31
0.0
  0
LINE
  5
185
100
AcDbEntity
  8
0-2 椅子
370
               5
390
0
  6
Continuous
 62
               7
100
AcDbLine
 10
-102.53739487459185
 20
33.800022844760676
 30
0.0
 11
-99.017372979016514
 21
33.800022844760676
 31
0.0
  0
LINE
  5
186
100
AcDbEntity
  8
0-2 椅子
370
               5
390
0
  6
Continuous
 62
               7
100
AcDbLine
 10
-99.417357770784292
 20
27.000001424225047
 30
0.0
 11
-103.15841721670004
 21
27.000001424225047
 31
0.0
  0
LINE
  5
187
100
AcDbEntity
  8
0-2 椅子
370
               5
390
0
  6
Continuous
 62
               7
100
AcDbLine
 10
-95.848723361911254
 20
30.817210121601821
 30
0.0
 11
-96.171150351036346
 21
28.301179011776114
 31
0.0
  0
LINE
  5
188
100
AcDbEntity
  8
0-2 椅子
370
               5
390
0
  6
Continuous
 62
               7
100
AcDbLine
 10
-102.23250041073422
 20
34.876400912976827
 30
0.0
 11
-102.27453822705662
 21
34.399986909264697
 31
0.0
  0
LINE
  5
189
100
AcDbEntity
  8
0-2 椅子
370
               5
390
0
  6
Continuous
 62
               7
100
AcDbLine
 10
-102.10314116991358
 20
34.963092426387597
 30
0.0
 11
-100.2954975705198
 21
34.399986909264697
 31
0.0
  0
LINE
  5
18A
100
AcDbEntity
  8
0-2 椅子
370
               5
390
0
  6
Continuous
 62
               7
100
AcDbLine
 10
-95.956560640577223
 20
30.929544265531003
 30
0.0
 11
-99.417357770784292
 21
30.629356637299061
 31
0.0
  0
LINE
  5
18B
100
AcDbEntity
  8
0-2 椅子
370
               5
390
0
  6
Continuous
 62
               7
100
AcDbLine
 10
-99.417357770784292
 20
28.160113923246971
 30
0.0
 11
-96.15293542209082
 21
28.443276454587469
 31
0.0
  0
LINE
  5
18C
100
AcDbEntity
  8
0-2 椅子
370
               5
390
0
  6
Continuous
 62
               7
100
AcDbLine
 10
-99.417357770784292
 20
28.019582509389149
 30
0.0
 11
-96.171150351036346
 21
28.301179011776114
 31
0.0
  0
LINE
  5
18D
100
AcDbEntity
  8
0-3 駆体
370
               5
390
0
  6
Continuous
 62
               7
100
AcDbLine
 10
-68.552121303146706
 20
60.000010941624645
 30
0.0
 11
-134.55211846603314
 21
60.000010941624645
 31
0.0
  0
LINE
  5
18E
100
AcDbEntity
  8
0-3 駆体
370
               5
390
0
  6
Continuous
 62
               7
100
AcDbLine
 10
-90.017373962402345
 20
22.99999602877535
 30
0.0
 11
-134.55211846603314
 21
22.99999602877535
 31
0.0
  0
LINE
  5
18F
100
AcDbEntity
  8
0-2 椅子
370
               5
390
0
  6
Continuous
 62
               7
100
AcDbLine
 10
-117.91737397597404
 20
60.000010941624645
 30
0.0
 11
-117.91737397597404
 21
22.99999602877535
 31
0.0
  0
LINE
  5
190
100
AcDbEntity
  8
0-2 椅子
370
               5
390
0
  6
Continuous
 62
               7
100
AcDbLine
 10
-110.81737489756895
 20
60.000010941624645
 30
0.0
 11
-110.81737489756895
 21
22.99999602877535
 31
0.0
  0
LINE
  5
191
100
AcDbEntity
  8
0-2 椅子
370
               5
390
0
  6
Continuous
 62
               7
100
AcDbLine
 10
-7.6521161465579643
 20
0.0
 30
0.0
 11
4.8513302301429215
 21
0.0
 31
0.0
  0
LINE
  5
192
100
AcDbEntity
  8
0-2 椅子
370
               5
390
0
  6
Continuous
 62
               7
100
AcDbLine
 10
4.8513302301429215
 20
-3.7500006838515403
 30
0.0
 11
4.8513302301429215
 21
0.0
 31
0.0
  0
LINE
  5
193
100
AcDbEntity
  8
0-2 椅子
370
               5
390
0
  6
Continuous
 62
               7
100
AcDbLine
 10
-19.052115775812418
 20
20.499738942431286
 30
0.0
 11
-9.6521625881083306
 21
20.499738942431286
 31
0.0
  0
LINE
  5
194
100
AcDbEntity
  8
0-2 椅子
370
               5
390
0
  6
Continuous
 62
               7
100
AcDbLine
 10
-12.346117333844305
 20
0.0
 30
0.0
 11
-12.346117333844305
 21
11.39999088048935
 31
0.0
  0
LINE
  5
195
100
AcDbEntity
  8
0-2 椅子
370
               5
390
0
  6
Continuous
 62
               7
100
AcDbLine
 10
-9.6521188442828141
 20
13.199996807947755
 30
0.0
 11
-9.6521188442828141
 21
20.499738942431286
 31
0.0
  0
LINE
  5
196
100
AcDbEntity
  8
0-2 椅子
370
               5
390
0
  6
Continuous
 62
               7
100
AcDbLine
 10
-19.052115775812418
 20
11.39999088048935
 30
0.0
 11
-19.052115775812418
 21
20.499738942431286
 31
0.0
  0
LINE
  5
197
100
AcDbEntity
  8
0-3 駆体
370
               5
390
0
  6
Continuous
 62
               7
100
AcDbLine
 10
-29.852125094267539
 20
17.800010011726989
 30
0.0
 11
-30.252118634800429
 21
17.800010011726989
 31
0.0
  0
LINE
  5
198
100
AcDbEntity
  8
0-2 椅子
370
               5
390
0
  6
Continuous
 62
               7
100
AcDbLine
 10
-55.552121265465395
 20
24.292416102457793
 30
0.0
 11
-30.552122538965197
 21
24.292416102457793
 31
0.0
  0
LINE
  5
199
100
AcDbEntity
  8
0-2 椅子
370
               5
390
0
  6
Continuous
 62
               7
100
AcDbLine
 10
-32.287965023154392
 20
17.800010011726989
 30
0.0
 11
-32.287965023154392
 21
0.0
 31
0.0
  0
LINE
  5
19A
100
AcDbEntity
  8
0-2 椅子
370
               5
390
0
  6
Continuous
 62
               7
100
AcDbLine
 10
-30.552122538965197
 20
17.500006107562221
 30
0.0
 11
-30.552122538965197
 21
24.292416102457793
 31
0.0
  0
LINE
  5
19B
100
AcDbEntity
  8
0-2 椅子
370
               5
390
0
  6
Continuous
 62
               7
100
AcDbLine
 10
-30.252118634800429
 20
17.800010011726989
 30
0.0
 11
-32.287965023154392
 21
17.800010011726989
 31
0.0
  0
LINE
  5
19C
100
AcDbEntity
  8
0-3 駆体
370
               5
390
0
  6
Continuous
 62
               7
100
AcDbLine
 10
-68.552121303146706
 20
52.000000150725249
 30
0.0
 11
-55.552121265465395
 21
52.000000150725249
 31
0.0
  0
LINE
  5
19D
100
AcDbEntity
  8
0-3 駆体
370
               5
390
0
  6
Continuous
 62
               7
100
AcDbLine
 10
-64.152122367164125
 20
52.000000150725249
 30
0.0
 11
-64.152122367164125
 21
26.000000075362625
 31
0.0
  0
LINE
  5
19E
100
AcDbEntity
  8
0-3 駆体
370
               5
390
0
  6
Continuous
 62
               7
100
AcDbLine
 10
-68.552121303146706
 20
26.000000075362625
 30
0.0
 11
-62.252118054572492
 21
26.000000075362625
 31
0.0
  0
LINE
  5
19F
100
AcDbEntity
  8
0-3 駆体
370
               5
390
0
  6
Continuous
 62
               7
100
AcDbLine
 10
-59.952120201447983
 20
52.000000150725249
 30
0.0
 11
-59.952120201447983
 21
26.000000075362625
 31
0.0
  0
LINE
  5
1A0
100
AcDbEntity
  8
0-3 駆体
370
               5
390
0
  6
Continuous
 62
               7
100
AcDbLine
 10
-61.852124514039609
 20
26.000000075362625
 30
0.0
 11
-55.552121265465395
 21
26.000000075362625
 31
0.0
  0
LINE
  5
1A1
100
AcDbEntity
  8
0-2 椅子
370
               5
390
0
  6
Continuous
 62
               7
100
AcDbLine
 10
-77.552120319760874
 20
28.80002484921366
 30
0.0
 11
-77.552120319760874
 21
34.211101070679725
 31
0.0
  0
LINE
  5
1A2
100
AcDbEntity
  8
0-2 椅子
370
               5
390
0
  6
Continuous
 62
               7
100
AcDbLine
 10
-68.552121303146706
 20
26.000000075362625
 30
0.0
 11
-68.552121303146706
 21
34.008645897419193
 31
0.0
  0
LINE
  5
1A3
100
AcDbEntity
  8
0-2 椅子
370
               5
390
0
  6
Continuous
 62
               7
100
AcDbLine
 10
-64.152122367164125
 20
26.000000075362625
 30
0.0
 11
-68.552121303146706
 21
26.000000075362625
 31
0.0
  0
LINE
  5
1A4
100
AcDbEntity
  8
0-2 椅子
370
               5
390
0
  6
Continuous
 62
               7
100
AcDbLine
 10
-77.552120319760874
 20
33.502494841120203
 30
0.0
 11
-68.552121303146706
 21
33.502494841120203
 31
0.0
  0
LINE
  5
1A5
100
AcDbEntity
  8
0-2 椅子
370
               5
390
0
  6
Continuous
 62
               7
100
AcDbLine
 10
8.1908388553373523
 20
9.5452614273084322
 30
0.0
 11
8.1908388553373523
 21
-3.7500006838515403
 31
0.0
  0
LINE
  5
1A6
100
AcDbEntity
  8
0-4
370
               5
390
0
  6
Continuous
 62
               7
100
AcDbLine
 10
-2.9521133064106109
 20
7.0500173833686857
 30
0.0
 11
-2.9521133064106109
 21
0.2500047115981579
 31
0.0
  0
LINE
  5
1A7
100
AcDbEntity
  8
0-4
370
               5
390
0
  6
Continuous
 62
               7
100
AcDbLine
 10
-0.4521011854894459
 20
3.5500039135850967
 30
0.0
 11
-4.1931693801702936
 21
3.5500039135850967
 31
0.0
  0
LINE
  5
1A8
100
AcDbEntity
  8
0-4
370
               5
390
0
  6
Continuous
 62
               7
100
AcDbLine
 10
18.547906945366414
 20
-0.1999967702664435
 30
0.0
 11
14.806847499450669
 21
-0.1999967702664435
 31
0.0
  0
LINE
  5
1A9
100
AcDbEntity
  8
0-4
370
               5
390
0
  6
Continuous
 62
               7
100
AcDbLine
 10
16.047877326915042
 20
3.3000166995171458
 30
0.0
 11
16.047877326915042
 21
-3.4999959722533824
 31
0.0
  0
LINE
  5
1AA
100
AcDbEntity
  8
0-4
370
               5
390
0
  6
Continuous
 62
               7
100
AcDbLine
 10
37.547915076222274
 20
-3.9499974541179839
 30
0.0
 11
33.806838132776321
 21
-3.9499974541179839
 31
0.0
  0
LINE
  5
1AB
100
AcDbEntity
  8
0-4
370
               5
390
0
  6
Continuous
 62
               7
100
AcDbLine
 10
35.047885457770903
 20
-0.4499839843343944
 30
0.0
 11
35.047885457770903
 21
-7.2499966561049227
 31
0.0
  0
LINE
  5
1AC
100
AcDbEntity
  8
0-4
370
               5
390
0
  6
Continuous
 62
               7
100
AcDbLine
 10
56.547905709547926
 20
-7.6999981379695237
 30
0.0
 11
52.80686376116239
 21
-7.6999981379695237
 31
0.0
  0
LINE
  5
1AD
100
AcDbEntity
  8
0-4
370
               5
390
0
  6
Continuous
 62
               7
100
AcDbLine
 10
54.047893588626756
 20
-4.1999846681859347
 30
0.0
 11
54.047893588626756
 21
-10.999997339956463
 31
0.0
  0
LINE
  5
1AE
100
AcDbEntity
  8
0-4
370
               5
390
0
  6
Continuous
 62
               7
100
AcDbLine
 10
75.54791384040378
 20
-11.449998821821064
 30
0.0
 11
71.806836896957833
 21
-11.449998821821064
 31
0.0
  0
LINE
  5
1AF
100
AcDbEntity
  8
0-4
370
               5
390
0
  6
Continuous
 62
               7
100
AcDbLine
 10
73.047901719482624
 20
-7.9499853520374746
 30
0.0
 11
73.047901719482624
 21
-14.749998023808002
 31
0.0
  0
LINE
  5
1B0
100
AcDbEntity
  8
0-4
370
               5
390
0
  6
Continuous
 62
               7
100
AcDbLine
 10
94.54792197125964
 20
-15.199999505672604
 30
0.0
 11
90.806845027813694
 21
-15.199999505672604
 31
0.0
  0
LINE
  5
1B1
100
AcDbEntity
  8
0-4
370
               5
390
0
  6
Continuous
 62
               7
100
AcDbLine
 10
92.047874855278067
 20
-11.699986035889015
 30
0.0
 11
92.047874855278067
 21
-18.499998707659543
 31
0.0
  0
LINE
  5
1B2
100
AcDbEntity
  8
0-4
370
               5
390
0
  6
Continuous
 62
               7
100
AcDbLine
 10
113.5479301021155
 20
-18.950000189524143
 30
0.0
 11
109.80685315866955
 21
-18.950000189524143
 31
0.0
  0
LINE
  5
1B3
100
AcDbEntity
  8
0-4
370
               5
390
0
  6
Continuous
 62
               7
100
AcDbLine
 10
111.04791798119433
 20
-15.449986719740554
 30
0.0
 11
111.04791798119433
 21
-22.249999391511082
 31
0.0
  0
LINE
  5
1B4
100
AcDbEntity
  8
0-4
370
               5
390
0
  6
Continuous
 62
               7
100
AcDbLine
 10
132.54793823297135
 20
-22.700000873375686
 30
0.0
 11
128.80686128952541
 21
-22.700000873375686
 31
0.0
  0
LINE
  5
1B5
100
AcDbEntity
  8
0-4
370
               5
390
0
  6
Continuous
 62
               7
100
AcDbLine
 10
130.04789111698977
 20
-19.199987403592097
 30
0.0
 11
130.04789111698977
 21
-26.000000075362625
 31
0.0
  0
LINE
  5
1B6
100
AcDbEntity
  8
0-3 駆体
370
               5
390
0
  6
Continuous
 62
               7
100
AcDbLine
 10
-57.95211750372313
 20
4.1164514589775356
 30
0.0
 11
-57.95211750372313
 21
10.116459552152083
 31
0.0
  0
LINE
  5
1B7
100
AcDbEntity
  8
0-3 駆体
370
               5
390
0
  6
Continuous
 62
               7
100
AcDbLine
 10
-57.95211750372313
 20
10.116459552152083
 30
0.0
 11
-55.552121265465395
 21
10.116459552152083
 31
0.0
  0
LINE
  5
1B8
100
AcDbEntity
  8
0-3 駆体
370
               5
390
0
  6
Continuous
 62
               7
100
AcDbLine
 10
-55.552121265465395
 20
10.116459552152083
 30
0.0
 11
-55.552121265465395
 21
4.1164514589775356
 31
0.0
  0
LINE
  5
1B9
100
AcDbEntity
  8
0-3 駆体
370
               5
390
0
  6
Continuous
 62
               7
100
AcDbLine
 10
-55.552121265465395
 20
4.1164514589775356
 30
0.0
 11
-57.95211750372313
 21
4.1164514589775356
 31
0.0
  0
LINE
  5
1BA
100
AcDbEntity
  8
0-2 椅子
370
               5
390
0
  6
Continuous
 62
               7
100
AcDbLine
 10
-82.299904540521098
 20
-3.6804217549832536
 30
0.0
 11
-60.995515425223857
 21
-3.6804217549832536
 31
0.0
  0
LINE
  5
1BB
100
AcDbEntity
  8
0-2 椅子
370
               5
390
0
  6
Continuous
 62
               7
100
AcDbLine
 10
-60.995515425223857
 20
-3.6804217549832536
 30
0.0
 11
-56.587712590768938
 21
5.6599260960705582
 31
0.0
  0
LINE
  5
1BC
100
AcDbEntity
  8
0-2 椅子
370
               5
390
0
  6
Continuous
 62
               7
100
AcDbLine
 10
-56.587712590768938
 20
5.6599260960705582
 30
0.0
 11
-57.637188206291761
 21
5.0302424765098843
 31
0.0
  0
ARC
  5
1BD
100
AcDbEntity
  8
0-2 椅子
370
               5
390
0
  6
Continuous
 62
               7
100
AcDbCircle
 10
-9.6362048405595129
 20
12.531083725662903
 30
0.0
 40
0.6691074005597689
100
AcDbArc
 50
24.970626831054663
 51
91.362106323242216
  0
ARC
  5
1BE
100
AcDbEntity
  8
0-2 椅子
370
               5
390
0
  6
Continuous
 62
               7
100
AcDbCircle
 10
-9.1668423415208231
 20
12.464243160272018
 30
0.0
 40
0.83104171134717
100
AcDbArc
 50
19.22517395019533
 51
90.286636352539077
  0
ARC
  5
1BF
100
AcDbEntity
  8
0-2 椅子
370
               5
390
0
  6
Continuous
 62
               7
100
AcDbCircle
 10
-8.4123138439329335
 20
11.873439052831381
 30
0.0
 40
0.6773301461614394
100
AcDbArc
 50
23.312286376953065
 51
82.645492553710952
  0
ARC
  5
1C0
100
AcDbEntity
  8
0-2 椅子
370
               5
390
0
  6
Continuous
 62
               7
100
AcDbCircle
 10
-3.1676303859706967
 20
8.1176204401860019
 30
0.0
 40
0.1000000169829631
100
AcDbArc
 50
72.696929931640724
 51
174.95678710937517
  0
ARC
  5
1C1
100
AcDbEntity
  8
0-2 椅子
370
               5
390
0
  6
Continuous
 62
               7
100
AcDbCircle
 10
3.017344099022448
 20
4.0799166159052405
 30
0.0
 40
0.1000000169829631
100
AcDbArc
 50
352.7012024577715
 51
94.961059635506047
  0
ARC
  5
1C2
100
AcDbEntity
  8
0-2 椅子
370
               5
390
0
  6
Continuous
 62
               7
100
AcDbCircle
 10
-28.636212971415372
 20
16.281084409514442
 30
0.0
 40
0.6691074005597689
100
AcDbArc
 50
24.970626831054663
 51
91.362106323242216
  0
ARC
  5
1C3
100
AcDbEntity
  8
0-2 椅子
370
               5
390
0
  6
Continuous
 62
               7
100
AcDbCircle
 10
-28.166850472376684
 20
16.214243844123558
 30
0.0
 40
0.8310417113471711
100
AcDbArc
 50
19.225173950195309
 51
90.286636352539148
  0
ARC
  5
1C4
100
AcDbEntity
  8
0-2 椅子
370
               5
390
0
  6
Continuous
 62
               7
100
AcDbCircle
 10
-27.412304477258587
 20
15.623439736682922
 30
0.0
 40
0.6773301461614384
100
AcDbArc
 50
23.312286376953107
 51
82.645492553710824
  0
ARC
  5
1C5
100
AcDbEntity
  8
0-2 椅子
370
               5
390
0
  6
Continuous
 62
               7
100
AcDbCircle
 10
-22.167629768061452
 20
11.867612375272438
 30
0.0
 40
0.1000000169829623
100
AcDbArc
 50
72.6969299316399
 51
174.95678710937517
  0
ARC
  5
1C6
100
AcDbEntity
  8
0-2 椅子
370
               5
390
0
  6
Continuous
 62
               7
100
AcDbCircle
 10
-15.982672780598515
 20
7.8299172997567803
 30
0.0
 40
0.100000016982965
100
AcDbArc
 50
352.70120245777099
 51
94.961059635505592
  0
ARC
  5
1C7
100
AcDbEntity
  8
0-2 椅子
370
               5
390
0
  6
Continuous
 62
               7
100
AcDbCircle
 10
9.3638032902963459
 20
8.7810830418113621
 30
0.0
 40
0.6691074005597689
100
AcDbArc
 50
24.970626831054663
 51
91.362106323242216
  0
ARC
  5
1C8
100
AcDbEntity
  8
0-2 椅子
370
               5
390
0
  6
Continuous
 62
               7
100
AcDbCircle
 10
9.8331395430397244
 20
8.7142337276553743
 30
0.0
 40
0.8310417113471711
100
AcDbArc
 50
19.225173950195309
 51
90.286636352539077
  0
ARC
  5
1C9
100
AcDbEntity
  8
0-2 椅子
370
               5
390
0
  6
Continuous
 62
               7
100
AcDbCircle
 10
10.587703035688028
 20
8.1234383689798424
 30
0.0
 40
0.6773301461614388
100
AcDbArc
 50
23.312286376953193
 51
82.645492553711023
  0
ARC
  5
1CA
100
AcDbEntity
  8
0-2 椅子
370
               5
390
0
  6
Continuous
 62
               7
100
AcDbCircle
 10
15.832360247354956
 20
4.3676197563344612
 30
0.0
 40
0.1000000169829629
100
AcDbArc
 50
72.696929931640014
 51
174.95678710937517
  0
ARC
  5
1CB
100
AcDbEntity
  8
0-2 椅子
370
               5
390
0
  6
Continuous
 62
               7
100
AcDbCircle
 10
22.0173347323481
 20
0.3299246808188036
 30
0.0
 40
0.1000000169829627
100
AcDbArc
 50
352.70120245777088
 51
94.961059635505706
  0
ARC
  5
1CC
100
AcDbEntity
  8
0-2 椅子
370
               5
390
0
  6
Continuous
 62
               7
100
AcDbCircle
 10
28.363793923621998
 20
5.0310823579598223
 30
0.0
 40
0.6691074005597689
100
AcDbArc
 50
24.970626831054663
 51
91.362106323242216
  0
ARC
  5
1CD
100
AcDbEntity
  8
0-2 椅子
370
               5
390
0
  6
Continuous
 62
               7
100
AcDbCircle
 10
28.83316517142579
 20
4.9642417925689371
 30
0.0
 40
0.8310417113471711
100
AcDbArc
 50
19.225173950195309
 51
90.286636352539148
  0
ARC
  5
1CE
100
AcDbEntity
  8
0-2 椅子
370
               5
390
0
  6
Continuous
 62
               7
100
AcDbCircle
 10
29.587693669013678
 20
4.3734376851283017
 30
0.0
 40
0.6773301461614385
100
AcDbArc
 50
23.31228637695315
 51
82.645492553710824
  0
ARC
  5
1CF
100
AcDbEntity
  8
0-2 椅子
370
               5
390
0
  6
Continuous
 62
               7
100
AcDbCircle
 10
34.832385875741018
 20
0.6176190724829213
 30
0.0
 40
0.1000000169829631
100
AcDbArc
 50
72.696929931640057
 51
174.956787109375
  0
ARC
  5
1D0
100
AcDbEntity
  8
0-2 椅子
370
               5
390
0
  6
Continuous
 62
               7
100
AcDbCircle
 10
41.017342863203957
 20
-3.4200847517978401
 30
0.0
 40
0.1000000169829621
100
AcDbArc
 50
352.70120245777343
 51
94.961059635505762
  0
ARC
  5
1D1
100
AcDbEntity
  8
0-2 椅子
370
               5
390
0
  6
Continuous
 62
               7
100
AcDbCircle
 10
47.363802054477858
 20
1.2810816741082818
 30
0.0
 40
0.6691074005597691
100
AcDbArc
 50
24.970626831054702
 51
91.362106323241804
  0
ARC
  5
1D2
100
AcDbEntity
  8
0-2 椅子
370
               5
390
0
  6
Continuous
 62
               7
100
AcDbCircle
 10
47.833155804751442
 20
1.2142323599522933
 30
0.0
 40
0.8310417113471711
100
AcDbArc
 50
19.225173950195309
 51
90.286636352538835
  0
ARC
  5
1D3
100
AcDbEntity
  8
0-2 椅子
370
               5
390
0
  6
Continuous
 62
               7
100
AcDbCircle
 10
48.587719297399744
 20
0.6234370012767613
 30
0.0
 40
0.6773301461614385
100
AcDbArc
 50
23.31228637695315
 51
82.645492553711208
  0
ARC
  5
1D4
100
AcDbEntity
  8
0-2 椅子
370
               5
390
0
  6
Continuous
 62
               7
100
AcDbCircle
 10
53.832359011536468
 20
-3.1323816113686189
 30
0.0
 40
0.1000000169829577
100
AcDbArc
 50
72.696929931641819
 51
174.95678710937494
  0
ARC
  5
1D5
100
AcDbEntity
  8
0-2 椅子
370
               5
390
0
  6
Continuous
 62
               7
100
AcDbCircle
 10
60.017350994059818
 20
-7.1700766868842765
 30
0.0
 40
0.1000000169829531
100
AcDbArc
 50
352.70120245777281
 51
94.961059635506217
  0
ARC
  5
1D6
100
AcDbEntity
  8
0-2 椅子
370
               5
390
0
  6
Continuous
 62
               7
100
AcDbCircle
 10
66.363810185333719
 20
-2.4689190097432583
 30
0.0
 40
0.6691074005597691
100
AcDbArc
 50
24.970626831054702
 51
91.362106323241804
  0
ARC
  5
1D7
100
AcDbEntity
  8
0-2 椅子
370
               5
390
0
  6
Continuous
 62
               7
100
AcDbCircle
 10
66.833163935607303
 20
-2.5357595751341431
 30
0.0
 40
0.8310417113471711
100
AcDbArc
 50
19.225173950195309
 51
90.286636352538835
  0
ARC
  5
1D8
100
AcDbEntity
  8
0-2 椅子
370
               5
390
0
  6
Continuous
 62
               7
100
AcDbCircle
 10
67.587692433195187
 20
-3.1265636825747789
 30
0.0
 40
0.6773301461614385
100
AcDbArc
 50
23.31228637695315
 51
82.645492553711208
  0
ARC
  5
1D9
100
AcDbEntity
  8
0-2 椅子
370
               5
390
0
  6
Continuous
 62
               7
100
AcDbCircle
 10
72.832367142392329
 20
-6.8823822952201592
 30
0.0
 40
0.1000000169829577
100
AcDbArc
 50
72.696929931641819
 51
174.95678710937494
  0
ARC
  5
1DA
100
AcDbEntity
  8
0-2 椅子
370
               5
390
0
  6
Continuous
 62
               7
100
AcDbCircle
 10
79.017359124915671
 20
-10.920086119500921
 30
0.0
 40
0.1000000169829531
100
AcDbArc
 50
352.70120245777281
 51
94.961059635506217
  0
ARC
  5
1DB
100
AcDbEntity
  8
0-2 椅子
370
               5
390
0
  6
Continuous
 62
               7
100
AcDbCircle
 10
85.36381831618958
 20
-6.218919693594799
 30
0.0
 40
0.6691074005597689
100
AcDbArc
 50
24.970626831054663
 51
91.362106323241804
  0
ARC
  5
1DC
100
AcDbEntity
  8
0-2 椅子
370
               5
390
0
  6
Continuous
 62
               7
100
AcDbCircle
 10
85.833137071402746
 20
-6.2857690077507868
 30
0.0
 40
0.8310417113471625
100
AcDbArc
 50
19.225173950195511
 51
90.286636352538821
  0
ARC
  5
1DD
100
AcDbEntity
  8
0-2 椅子
370
               5
390
0
  6
Continuous
 62
               7
100
AcDbCircle
 10
86.587700564051048
 20
-6.8765643664263187
 30
0.0
 40
0.6773301461614472
100
AcDbArc
 50
23.312286376952891
 51
82.645492553711321
  0
ARC
  5
1DE
100
AcDbEntity
  8
0-2 椅子
370
               5
390
0
  6
Continuous
 62
               7
100
AcDbCircle
 10
91.832375273248189
 20
-10.6323829790717
 30
0.0
 40
0.1000000169829593
100
AcDbArc
 50
72.696929931636674
 51
174.9567871093754
  0
ARC
  5
1DF
100
AcDbEntity
  8
0-2 椅子
370
               5
390
0
  6
Continuous
 62
               7
100
AcDbCircle
 10
98.017332260711115
 20
-14.670078054587357
 30
0.0
 40
0.1000000169829519
100
AcDbArc
 50
352.70120245777792
 51
94.961059635506217
  0
ARC
  5
1E0
100
AcDbEntity
  8
0-2 椅子
370
               5
390
0
  6
Continuous
 62
               7
100
AcDbCircle
 10
104.36382644704543
 20
-9.968920377446338
 30
0.0
 40
0.6691074005597689
100
AcDbArc
 50
24.970626831054663
 51
91.362106323241804
  0
ARC
  5
1E1
100
AcDbEntity
  8
0-2 椅子
370
               5
390
0
  6
Continuous
 62
               7
100
AcDbCircle
 10
104.83318019731902
 20
-10.035760942837223
 30
0.0
 40
0.8310417113471625
100
AcDbArc
 50
19.225173950195511
 51
90.286636352538821
  0
ARC
  5
1E2
100
AcDbEntity
  8
0-2 椅子
370
               5
390
0
  6
Continuous
 62
               7
100
AcDbCircle
 10
105.58770869490691
 20
-10.626565050277859
 30
0.0
 40
0.6773301461614466
100
AcDbArc
 50
23.312286376952798
 51
82.645492553711321
  0
ARC
  5
1E3
100
AcDbEntity
  8
0-2 椅子
370
               5
390
0
  6
Continuous
 62
               7
100
AcDbCircle
 10
110.83238340410404
 20
-14.382383662923239
 30
0.0
 40
0.1000000169829593
100
AcDbArc
 50
72.696929931636674
 51
174.9567871093754
  0
ARC
  5
1E4
100
AcDbEntity
  8
0-2 椅子
370
               5
390
0
  6
Continuous
 62
               7
100
AcDbCircle
 10
117.01737538662739
 20
-18.420087487204
 30
0.0
 40
0.1000000169829746
100
AcDbArc
 50
352.7012024577586
 51
94.961059635505151
  0
ARC
  5
1E5
100
AcDbEntity
  8
0-2 椅子
370
               5
390
0
  6
Continuous
 62
               7
100
AcDbCircle
 10
123.36383457790129
 20
-13.718921061297879
 30
0.0
 40
0.6691074005597689
100
AcDbArc
 50
24.970626831054663
 51
91.362106323241804
  0
ARC
  5
1E6
100
AcDbEntity
  8
0-2 椅子
370
               5
390
0
  6
Continuous
 62
               7
100
AcDbCircle
 10
123.83315333311447
 20
-13.785770375453867
 30
0.0
 40
0.8310417113471625
100
AcDbArc
 50
19.225173950195511
 51
90.286636352538821
  0
ARC
  5
1E7
100
AcDbEntity
  8
0-2 椅子
370
               5
390
0
  6
Continuous
 62
               7
100
AcDbCircle
 10
124.58771682576277
 20
-14.3765657341294
 30
0.0
 40
0.6773301461614466
100
AcDbArc
 50
23.312286376952798
 51
82.645492553711321
  0
ARC
  5
1E8
100
AcDbEntity
  8
0-2 椅子
370
               5
390
0
  6
Continuous
 62
               7
100
AcDbCircle
 10
129.8323915349599
 20
-18.132384346774781
 30
0.0
 40
0.1000000169829593
100
AcDbArc
 50
72.696929931636674
 51
174.9567871093754
  0
ARC
  5
1E9
100
AcDbEntity
  8
0-2 椅子
370
               5
390
0
  6
Continuous
 62
               7
100
AcDbCircle
 10
136.01734852242285
 20
-22.170079422290438
 30
0.0
 40
0.1000000169829542
100
AcDbArc
 50
352.70120245776758
 51
94.961059635506217
  0
ARC
  5
1EA
100
AcDbEntity
  8
0-3 駆体
370
               5
390
0
  6
Continuous
 62
               7
100
AcDbCircle
 10
-30.252118634800429
 20
17.500006107562221
 30
0.0
 40
0.3000000082303086
100
AcDbArc
 50
90.0
 51
180.0
  0
ARC
  5
1EB
100
AcDbEntity
  8
0-3 駆体
370
               5
390
0
  6
Continuous
 62
               7
100
AcDbCircle
 10
-29.852125094267539
 20
17.500006107562221
 30
0.0
 40
0.3000000082303086
100
AcDbArc
 50
0.0
 51
90.0
  0
ARC
  5
1EC
100
AcDbEntity
  8
0-2 椅子
370
               5
390
0
  6
Continuous
 62
               7
100
AcDbCircle
 10
-87.136217515363825
 20
34.281082442742772
 30
0.0
 40
0.6691074005597689
100
AcDbArc
 50
24.970626831054663
 51
91.362106323241804
  0
ARC
  5
1ED
100
AcDbEntity
  8
0-2 椅子
370
               5
390
0
  6
Continuous
 62
               7
100
AcDbCircle
 10
-86.66685501632513
 20
34.214241877351888
 30
0.0
 40
0.8310417113471625
100
AcDbArc
 50
19.225173950195511
 51
90.286636352538821
  0
ARC
  5
1EE
100
AcDbEntity
  8
0-2 椅子
370
               5
390
0
  6
Continuous
 62
               7
100
AcDbCircle
 10
-85.912309021207037
 20
33.623437769911256
 30
0.0
 40
0.6773301461614466
100
AcDbArc
 50
23.312286376952798
 51
82.645492553711335
  0
ARC
  5
1EF
100
AcDbEntity
  8
0-2 椅子
370
               5
390
0
  6
Continuous
 62
               7
100
AcDbCircle
 10
-80.667634312009909
 20
29.86761040850077
 30
0.0
 40
0.1000000169829566
100
AcDbArc
 50
72.696929931641648
 51
174.95678710937622
  0
ARC
  5
1F0
100
AcDbEntity
  8
0-2 椅子
370
               5
390
0
  6
Continuous
 62
               7
100
AcDbCircle
 10
-74.482681698929525
 20
25.829915332985109
 30
0.0
 40
0.1000000169829531
100
AcDbArc
 50
352.70120245777281
 51
94.961059635506217
  0
ARC
  5
1F1
100
AcDbEntity
  8
0-2 椅子
370
               5
390
0
  6
Continuous
 62
               7
100
AcDbCircle
 10
-108.60147017461946
 20
39.281080438289791
 30
0.0
 40
0.6691074005597689
100
AcDbArc
 50
24.970626831054663
 51
91.362106323241804
  0
ARC
  5
1F2
100
AcDbEntity
  8
0-2 椅子
370
               5
390
0
  6
Continuous
 62
               7
100
AcDbCircle
 10
-108.13210767558077
 20
39.214239872898908
 30
0.0
 40
0.8310417113471625
100
AcDbArc
 50
19.225173950195511
 51
90.286636352538821
  0
ARC
  5
1F3
100
AcDbEntity
  8
0-2 椅子
370
               5
390
0
  6
Continuous
 62
               7
100
AcDbCircle
 10
-107.37756168046268
 20
38.623435765458275
 30
0.0
 40
0.6773301461614466
100
AcDbArc
 50
23.312286376952798
 51
82.645492553711335
  0
ARC
  5
1F4
100
AcDbEntity
  8
0-2 椅子
370
               5
390
0
  6
Continuous
 62
               7
100
AcDbCircle
 10
-102.13288697126555
 20
34.867608404047786
 30
0.0
 40
0.1000000169829593
100
AcDbArc
 50
72.696929931636674
 51
174.95678710937671
  0
ARC
  5
1F5
100
AcDbEntity
  8
0-2 椅子
370
               5
390
0
  6
Continuous
 62
               7
100
AcDbCircle
 10
-95.947934358185165
 20
30.829913328532129
 30
0.0
 40
0.1000000169829542
100
AcDbArc
 50
352.70120245776758
 51
94.961059635506217
  0
MTEXT
  5
1F6
100
AcDbEntity
  8
0-4
390
0
 62
               7
100
AcDbMText
 10
-98.184748629732056
 20
50.805325890323147
 30
0.0
 40
2.3085937500000004
 41
0.0
 71
               1
 72
               1
  1
特別観覧席
  7
ＭＳ ゴシック
 73
               1
 44
0.7828267384257841
  0
MTEXT
  5
1F7
100
AcDbEntity
  8
0-4
390
0
 62
               7
100
AcDbMText
 10
84.500000244928529
 20
-94.689474568282023
 30
0.0
 40
2.3085937500000004
 41
0.0
 71
               1
 72
               1
  1
鳥取県立県民文化会館　梨花ホール
  7
ＭＳ ゴシック
 73
               1
 44
0.7828267384257841
  0
MTEXT
  5
1F8
100
AcDbEntity
  8
0-2 椅子
390
0
 62
               7
100
AcDbMText
 10
-16.227139523886144
 20
22.923567741862499
 30
0.0
 40
1.9238281250000002
 41
0.0
 71
               1
 72
               1
  1
470
  7
ＭＳ ゴシック
 73
               1
 44
0.7828267384257843
  0
MTEXT
  5
1F9
100
AcDbEntity
  8
0-2 椅子
390
0
 62
               7
100
AcDbMText
 10
-14.769946133275516
 20
3.8249950983189045
 30
0.0
 40
1.9238281250000002
 41
0.0
 71
               1
 72
               1
  1
560
  7
ＭＳ ゴシック
 11
0.0
 21
1.0
 31
0.0
 73
               1
 44
0.7828267384257843
  0
MTEXT
  5
1FA
100
AcDbEntity
  8
0-2 椅子
390
0
 62
               7
100
AcDbMText
 10
2.4275101794768124
 20
-3.7500006838515403
 30
0.0
 40
1.9238281250000002
 41
0.0
 71
               1
 72
               1
  1
182
  7
ＭＳ ゴシック
 11
0.0
 21
1.0
 31
0.0
 73
               1
 44
0.7828267384257843
  0
MTEXT
  5
1FB
100
AcDbEntity
  8
0-2 椅子
390
0
 62
               7
100
AcDbMText
 10
-46.177119555836548
 20
26.716244901889006
 30
0.0
 40
1.9238281250000002
 41
0.0
 71
               1
 72
               1
  1
1,250
  7
ＭＳ ゴシック
 73
               1
 44
0.7828267384257843
  0
MTEXT
  5
1FC
100
AcDbEntity
  8
0-2 椅子
390
0
 62
               7
100
AcDbMText
 10
-34.711793822585605
 20
7.0250046639377253
 30
0.0
 40
1.9238281250000002
 41
0.0
 71
               1
 72
               1
  1
890
  7
ＭＳ ゴシック
 11
0.0
 21
1.0
 31
0.0
 73
               1
 44
0.7828267384257843
  0
MTEXT
  5
1FD
100
AcDbEntity
  8
0-2 椅子
390
0
 62
               7
100
AcDbMText
 10
-68.227122177081185
 20
28.423828874793834
 30
0.0
 40
1.9238281250000002
 41
0.0
 71
               1
 72
               1
  1
220
  7
ＭＳ ゴシック
 73
               1
 44
0.7828267384257843
  0
MTEXT
  5
1FE
100
AcDbEntity
  8
0-2 椅子
390
0
 62
               7
100
AcDbMText
 10
-74.927118966188289
 20
35.926323640551416
 30
0.0
 40
1.9238281250000002
 41
0.0
 71
               1
 72
               1
  1
450
  7
ＭＳ ゴシック
 73
               1
 44
0.7828267384257843
  0
MTEXT
  5
1FF
100
AcDbEntity
  8
0-2 椅子
390
0
 62
               7
100
AcDbMText
 10
5.7670188046712427
 20
1.0226256554201245
 30
0.0
 40
1.9238281250000002
 41
0.0
 71
               1
 72
               1
  1
670
  7
ＭＳ ゴシック
 11
0.0
 21
1.0
 31
0.0
 73
               1
 44
0.7828267384257843
  0
MTEXT
  5
200
100
AcDbEntity
  8
0-4
390
0
 62
               7
100
AcDbMText
 10
-23.952124134991319
 20
8.2190624999999997
 30
0.0
 40
1.5390625
 41
0.0
 71
               1
 72
               1
  1
へ列
  7
ＭＳ ゴシック
 73
               1
 44
0.7828267384257843
  0
MTEXT
  5
201
100
AcDbEntity
  8
0-4
390
0
 62
               7
100
AcDbMText
 10
-4.9521160041354602
 20
4.0890650647226723
 30
0.0
 40
1.5390625
 41
0.0
 71
               1
 72
               1
  1
ふ列
  7
ＭＳ ゴシック
 73
               1
 44
0.7828267384257843
  0
MTEXT
  5
202
100
AcDbEntity
  8
0-4
390
0
 62
               7
100
AcDbMText
 10
14.047874629190192
 20
0.339064380871132
 30
0.0
 40
1.5390625
 41
0.0
 71
               1
 72
               1
  1
ひ列
  7
ＭＳ ゴシック
 73
               1
 44
0.7828267384257843
  0
MTEXT
  5
203
100
AcDbEntity
  8
0-4
390
0
 62
               7
100
AcDbMText
 10
33.047882760046051
 20
-3.4109363029804083
 30
0.0
 40
1.5390625
 41
0.0
 71
               1
 72
               1
  1
は列
  7
ＭＳ ゴシック
 73
               1
 44
0.7828267384257843
  0
MTEXT
  5
204
100
AcDbEntity
  8
0-4
390
0
 62
               7
100
AcDbMText
 10
52.047890890901911
 20
-7.1609369868319481
 30
0.0
 40
1.5390625
 41
0.0
 71
               1
 72
               1
  1
の列
  7
ＭＳ ゴシック
 73
               1
 44
0.7828267384257843
  0
MTEXT
  5
205
100
AcDbEntity
  8
0-4
390
0
 62
               7
100
AcDbMText
 10
71.047899021757772
 20
-10.910937670683488
 30
0.0
 40
1.5390625
 41
0.0
 71
               1
 72
               1
  1
ね列
  7
ＭＳ ゴシック
 73
               1
 44
0.7828267384257843
  0
MTEXT
  5
206
100
AcDbEntity
  8
0-4
390
0
 62
               7
100
AcDbMText
 10
90.047872157553215
 20
-14.660938354535029
 30
0.0
 40
1.5390625
 41
0.0
 71
               1
 72
               1
  1
ぬ列
  7
ＭＳ ゴシック
 73
               1
 44
0.7828267384257843
  0
MTEXT
  5
207
100
AcDbEntity
  8
0-4
390
0
 62
               7
100
AcDbMText
 10
109.04791528346948
 20
-18.410939038386569
 30
0.0
 40
1.5390625
 41
0.0
 71
               1
 72
               1
  1
に列
  7
ＭＳ ゴシック
 73
               1
 44
0.7828267384257843
  0
MTEXT
  5
208
100
AcDbEntity
  8
0-4
390
0
 62
               7
100
AcDbMText
 10
128.04788841926492
 20
-22.160939722238108
 30
0.0
 40
1.5390625
 41
0.0
 71
               1
 72
               1
  1
な列
  7
ＭＳ ゴシック
 73
               1
 44
0.7828267384257843
  0
MTEXT
  5
209
100
AcDbEntity
  8
0-2 椅子
390
0
 62
               7
100
AcDbMText
 10
-65.197284841490912
 20
42.078810276202859
 30
0.0
 40
1.5390625
 41
0.0
 71
               1
 72
               1
  1
ガラス
  7
ＭＳ ゴシック
 73
               1
 44
0.7828267384257843
  0
MTEXT
  5
20A
100
AcDbEntity
  8
0-2 椅子
390
0
 62
               7
100
AcDbMText
 10
-82.200177367106079
 20
-1.3572511825803668
 30
0.0
 40
1.5390625
 41
0.0
 71
               1
 72
               1
  1
電源100V 30A C型　2口
  7
ＭＳ ゴシック
 73
               1
 44
0.7828267384257843
  0
MTEXT
  5
20B
100
AcDbEntity
  8
0-4
390
0
 62
               7
100
AcDbMText
 10
84.500000244928529
 20
-98.689473402157887
 30
0.0
 40
2.3085937500000004
 41
0.0
 71
               1
 72
               1
  1
１階（奥）客席　断面図　１：５０
  7
ＭＳ ゴシック
 73
               1
 44
0.7828267384257841
  0
INSERT
  5
20C
100
AcDbEntity
  8
0-2 椅子
390
0
 62
               7
100
AcDbBlockReference
  2
JW Point
 10
4.8513302301429215
 20
-3.7500006838515403
 30
0.0
 41
0.02
 42
0.02
 43
0.02
  0
INSERT
  5
20D
100
AcDbEntity
  8
0-2 椅子
390
0
 62
               7
100
AcDbBlockReference
  2
JW Point
 10
4.8513302301429215
 20
0.0
 30
0.0
 41
0.02
 42
0.02
 43
0.02
  0
INSERT
  5
20E
100
AcDbEntity
  8
0-2 椅子
390
0
 62
               7
100
AcDbBlockReference
  2
JW Point
 10
-19.052115775812418
 20
20.499738942431286
 30
0.0
 41
0.02
 42
0.02
 43
0.02
  0
INSERT
  5
20F
100
AcDbEntity
  8
0-2 椅子
390
0
 62
               7
100
AcDbBlockReference
  2
JW Point
 10
-9.6521625881083306
 20
20.499738942431286
 30
0.0
 41
0.02
 42
0.02
 43
0.02
  0
INSERT
  5
210
100
AcDbEntity
  8
0-2 椅子
390
0
 62
               7
100
AcDbBlockReference
  2
JW Point
 10
-12.346117333844305
 20
0.0
 30
0.0
 41
0.02
 42
0.02
 43
0.02
  0
INSERT
  5
211
100
AcDbEntity
  8
0-2 椅子
390
0
 62
               7
100
AcDbBlockReference
  2
JW Point
 10
-12.346117333844305
 20
11.39999088048935
 30
0.0
 41
0.02
 42
0.02
 43
0.02
  0
INSERT
  5
212
100
AcDbEntity
  8
0-2 椅子
390
0
 62
               7
100
AcDbBlockReference
  2
JW Point
 10
-55.552121265465395
 20
24.292416102457793
 30
0.0
 41
0.02
 42
0.02
 43
0.02
  0
INSERT
  5
213
100
AcDbEntity
  8
0-2 椅子
390
0
 62
               7
100
AcDbBlockReference
  2
JW Point
 10
-30.552122538965197
 20
24.292416102457793
 30
0.0
 41
0.02
 42
0.02
 43
0.02
  0
INSERT
  5
214
100
AcDbEntity
  8
0-2 椅子
390
0
 62
               7
100
AcDbBlockReference
  2
JW Point
 10
-32.287965023154392
 20
17.800010011726989
 30
0.0
 41
0.02
 42
0.02
 43
0.02
  0
INSERT
  5
215
100
AcDbEntity
  8
0-2 椅子
390
0
 62
               7
100
AcDbBlockReference
  2
JW Point
 10
-32.287965023154392
 20
0.0
 30
0.0
 41
0.02
 42
0.02
 43
0.02
  0
INSERT
  5
216
100
AcDbEntity
  8
0-2 椅子
390
0
 62
               7
100
AcDbBlockReference
  2
JW Point
 10
-64.152122367164125
 20
26.000000075362625
 30
0.0
 41
0.02
 42
0.02
 43
0.02
  0
INSERT
  5
217
100
AcDbEntity
  8
0-2 椅子
390
0
 62
               7
100
AcDbBlockReference
  2
JW Point
 10
-68.552121303146706
 20
26.000000075362625
 30
0.0
 41
0.02
 42
0.02
 43
0.02
  0
INSERT
  5
218
100
AcDbEntity
  8
0-2 椅子
390
0
 62
               7
100
AcDbBlockReference
  2
JW Point
 10
-77.552120319760874
 20
33.502494841120203
 30
0.0
 41
0.02
 42
0.02
 43
0.02
  0
INSERT
  5
219
100
AcDbEntity
  8
0-2 椅子
390
0
 62
               7
100
AcDbBlockReference
  2
JW Point
 10
-68.552121303146706
 20
33.502494841120203
 30
0.0
 41
0.02
 42
0.02
 43
0.02
  0
INSERT
  5
21A
100
AcDbEntity
  8
0-2 椅子
390
0
 62
               7
100
AcDbBlockReference
  2
JW Point
 10
8.1908388553373523
 20
9.5452614273084322
 30
0.0
 41
0.02
 42
0.02
 43
0.02
  0
INSERT
  5
21B
100
AcDbEntity
  8
0-2 椅子
390
0
 62
               7
100
AcDbBlockReference
  2
JW Point
 10
8.1908388553373523
 20
-3.7500006838515403
 30
0.0
 41
0.02
 42
0.02
 43
0.02
  0
LINE
  5
21C
100
AcDbEntity
  8
0-2 椅子
370
               5
390
0
  6
Continuous
 62
               7
100
AcDbLine
 10
8.1908388553373523
 20
9.5440614273084332
 30
0.0
 11
9.1799999999999997
 21
9.5440614273084332
 31
0.0
  0
LINE
  5
21D
100
AcDbEntity
  8
0-2 椅子
370
               5
390
0
  6
Continuous
 62
               7
100
AcDbLine
 10
-12.346117333844305
 20
11.401190880489349
 30
0.0
 11
-16.399999999999999
 21
11.401190880489349
 31
0.0
  0
ENDSEC
  0
SECTION
  2
OBJECTS
  0
DICTIONARY
  5
19
100
AcDbDictionary
280
               0
281
               1
  3
ACAD_GROUP
350
1A
  3
ACAD_MLINESTYLE
350
1B
  3
ACAD_LAYOUT
350
1E
  3
ACAD_PLOTSETTINGS
350
22
  3
ACAD_PLOTSTYLENAME
350
1F
  3
ACAD_WIPEOUT_VARS
350
23
  0
DICTIONARY
  5
1A
102
{ACAD_REACTORS
330
19
102
}
100
AcDbDictionary
280
               0
281
               1
  0
DICTIONARY
  5
1B
102
{ACAD_REACTORS
330
19
102
}
100
AcDbDictionary
280
               0
281
               1
  3
Standard
350
1C
  0
MLINESTYLE
  5
1C
102
{ACAD_REACTORS
330
1B
102
}
100
AcDbMlineStyle
  2
Standard
 70
               0
  3

 62
               0
 51
90.0
 52
90.0
 71
               2
 49
0.5
 62
             256
  6
ByLayer
 49
-0.5
 62
             256
  6
ByLayer
  0
ACDBDICTIONARYWDFLT
  5
1F
102
{ACAD_REACTORS
330
19
102
}
100
AcDbDictionary
281
               1
  3
Normal
350
1D
100
AcDbDictionaryWithDefault
340
1D
  0
ACDBPLACEHOLDER
  5
1D
102
{ACAD_REACTORS
330
1F
102
}
  0
LAYOUT
  5
20
102
{ACAD_REACTORS
330
1E
102
}
100
AcDbPlotSettings
  1

  2

  4

  6

 40
0.0
 41
0.0
 42
0.0
 43
0.0
 44
0.0
 45
0.0
 46
0.0
 47
0.0
 48
0.0
 49
0.0
140
0.0
141
0.0
142
1.0
143
1.0
 70
            1024
 72
               0
 73
               0
 74
               0
  7

 75
               0
147
1.0
148
0.0
149
0.0
100
AcDbLayout
  1
Model
 70
               0
 71
               0
 10
0.0
 20
0.0
 11
0.0
 21
0.0
 12
0.0
 22
0.0
 32
0.0
 14
0.0
 24
0.0
 34
0.0
 15
0.0
 25
0.0
 35
0.0
146
0.0
 13
0.0
 23
0.0
 33
0.0
 16
0.0
 26
0.0
 36
0.0
 17
0.0
 27
0.0
 37
0.0
 76
               0
330
A
331
0
345
0
346
0
  0
LAYOUT
  5
21
102
{ACAD_REACTORS
330
1E
102
}
100
AcDbPlotSettings
  1

  2

  4

  6

 40
0.0
 41
0.0
 42
0.0
 43
0.0
 44
0.0
 45
0.0
 46
0.0
 47
0.0
 48
0.0
 49
0.0
140
0.0
141
0.0
142
1.0
143
1.0
 70
               0
 72
               0
 73
               0
 74
               0
  7

 75
               0
147
1.0
148
0.0
149
0.0
100
AcDbLayout
  1
Layout1
 70
               0
 71
               0
 10
0.0
 20
0.0
 11
0.0
 21
0.0
 12
0.0
 22
0.0
 32
0.0
 14
0.0
 24
0.0
 34
0.0
 15
0.0
 25
0.0
 35
0.0
146
0.0
 13
0.0
 23
0.0
 33
0.0
 16
0.0
 26
0.0
 36
0.0
 17
0.0
 27
0.0
 37
0.0
 76
               0
330
B
331
0
345
0
346
0
  0
DICTIONARY
  5
1E
102
{ACAD_REACTORS
330
19
102
}
100
AcDbDictionary
280
               0
281
               1
  3
Layout1
350
21
  3
Model
350
20
  0
DICTIONARY
  5
22
102
{ACAD_REACTORS
330
19
102
}
100
AcDbDictionary
280
               0
281
               1
  0
WIPEOUTVARIABLES
  5
23
100
AcDbWipeoutVariables
 70
               0
  0
ENDSEC
  0
EOF
